  0
SECTION
  2
HEADER
  9
$ACADVER
  1
AC1009
  9
$INSBASE
 10
0.0
 20
0.0
 30
0.0
  9
$EXTMIN
 10
29.989015033921529
 20
7.1438617575261096
 30
-0.0015258207003583
  9
$EXTMAX
 10
570.01739634668616
 20
810.02472112423811
 30
0.0000000349246037
  9
$LIMMIN
 10
0.0
 20
0.0
  9
$LIMMAX
 10
0.0
 20
0.0
  9
$ORTHOMODE
 70
     0
  9
$REGENMODE
 70
     1
  9
$FILLMODE
 70
     1
  9
$QTEXTMODE
 70
     0
  9
$MIRRTEXT
 70
     1
  9
$DRAGMODE
 70
     2
  9
$LTSCALE
 40
15.24
  9
$OSMODE
 70
   231
  9
$ATTMODE
 70
     1
  9
$TEXTSIZE
 40
0.0
  9
$TRACEWID
 40
1.0
  9
$TEXTSTYLE
  7
STANDARD
  9
$CLAYER
  8
DATA
  9
$CELTYPE
  6
BYLAYER
  9
$CECOLOR
 62
   256
  9
$DIMSCALE
 40
1.0
  9
$DIMASZ
 40
0.18
  9
$DIMEXO
 40
0.0625
  9
$DIMDLI
 40
0.38
  9
$DIMRND
 40
0.0
  9
$DIMDLE
 40
0.0
  9
$DIMEXE
 40
0.18
  9
$DIMTP
 40
0.0
  9
$DIMTM
 40
0.0
  9
$DIMTXT
 40
0.18
  9
$DIMCEN
 40
0.09
  9
$DIMTSZ
 40
0.0
  9
$DIMTOL
 70
     0
  9
$DIMLIM
 70
     0
  9
$DIMTIH
 70
     1
  9
$DIMTOH
 70
     1
  9
$DIMSE1
 70
     0
  9
$DIMSE2
 70
     0
  9
$DIMTAD
 70
     0
  9
$DIMZIN
 70
     0
  9
$DIMBLK
  1

  9
$DIMASO
 70
     1
  9
$DIMSHO
 70
     1
  9
$DIMPOST
  1

  9
$DIMAPOST
  1

  9
$DIMALT
 70
     0
  9
$DIMALTD
 70
     2
  9
$DIMALTF
 40
25.399999999999999
  9
$DIMLFAC
 40
1.0
  9
$DIMTOFL
 70
     0
  9
$DIMTVP
 40
0.0
  9
$DIMTIX
 70
     0
  9
$DIMSOXD
 70
     0
  9
$DIMSAH
 70
     0
  9
$DIMBLK1
  1

  9
$DIMBLK2
  1

  9
$DIMSTYLE
  2
STANDARD
  9
$DIMCLRD
 70
     0
  9
$DIMCLRE
 70
     0
  9
$DIMCLRT
 70
     0
  9
$DIMTFAC
 40
1.0
  9
$DIMGAP
 40
0.09
  9
$LUNITS
 70
     2
  9
$LUPREC
 70
     4
  9
$SKETCHINC
 40
0.1
  9
$FILLETRAD
 40
0.0
  9
$AUNITS
 70
     0
  9
$AUPREC
 70
     0
  9
$MENU
  1
acad
  9
$ELEVATION
 40
0.0
  9
$PELEVATION
 40
0.0
  9
$THICKNESS
 40
0.0
  9
$LIMCHECK
 70
     0
  9
$BLIPMODE
 70
     0
  9
$CHAMFERA
 40
0.0
  9
$CHAMFERB
 40
0.0
  9
$SKPOLY
 70
     0
  9
$TDCREATE
 40
2455140.4248495372
  9
$TDUPDATE
 40
2455140.4365123841
  9
$TDINDWG
 40
0.0012025926
  9
$TDUSRTIMER
 40
0.0011975231
  9
$USRTIMER
 70
     1
  9
$ANGBASE
 50
0.0
  9
$ANGDIR
 70
     0
  9
$PDMODE
 70
     1
  9
$PDSIZE
 40
-2.0
  9
$PLINEWID
 40
0.0
  9
$COORDS
 70
     0
  9
$SPLFRAME
 70
     0
  9
$SPLINETYPE
 70
     6
  9
$SPLINESEGS
 70
     8
  9
$ATTDIA
 70
     0
  9
$ATTREQ
 70
     1
  9
$HANDLING
 70
     1
  9
$HANDSEED
  5
11F2
  9
$SURFTAB1
 70
     6
  9
$SURFTAB2
 70
     6
  9
$SURFTYPE
 70
     6
  9
$SURFU
 70
     6
  9
$SURFV
 70
     6
  9
$UCSNAME
  2

  9
$UCSORG
 10
0.0
 20
0.0
 30
0.0
  9
$UCSXDIR
 10
1.0
 20
0.0
 30
0.0
  9
$UCSYDIR
 10
0.0
 20
1.0
 30
0.0
  9
$PUCSNAME
  2

  9
$PUCSORG
 10
0.0
 20
0.0
 30
0.0
  9
$PUCSXDIR
 10
1.0
 20
0.0
 30
0.0
  9
$PUCSYDIR
 10
0.0
 20
1.0
 30
0.0
  9
$USERI1
 70
     0
  9
$USERI2
 70
     0
  9
$USERI3
 70
     0
  9
$USERI4
 70
     0
  9
$USERI5
 70
     0
  9
$USERR1
 40
0.0
  9
$USERR2
 40
0.0
  9
$USERR3
 40
0.0
  9
$USERR4
 40
0.0
  9
$USERR5
 40
0.0
  9
$WORLDVIEW
 70
     1
  9
$SHADEDGE
 70
     3
  9
$SHADEDIF
 70
    70
  9
$TILEMODE
 70
     1
  9
$MAXACTVP
 70
    64
  9
$PLIMCHECK
 70
     0
  9
$PEXTMIN
 10
1.0000000000000000E+020
 20
1.0000000000000000E+020
 30
1.0000000000000000E+020
  9
$PEXTMAX
 10
-1.0000000000000000E+020
 20
-1.0000000000000000E+020
 30
-1.0000000000000000E+020
  9
$PLIMMIN
 10
0.0
 20
0.0
  9
$PLIMMAX
 10
12.0
 20
9.0
  9
$UNITMODE
 70
     0
  9
$VISRETAIN
 70
     0
  9
$PLINEGEN
 70
     1
  9
$PSLTSCALE
 70
     0
  0
ENDSEC
  0
SECTION
  2
TABLES
  0
TABLE
  2
VPORT
 70
     1
  0
VPORT
  2
*ACTIVE
 70
     0
 10
0.0
 20
0.0
 11
1.0
 21
1.0
 12
300.00320569030379
 22
408.58429144088211
 13
0.0
 23
0.0
 14
1.0
 24
1.0
 15
0.0
 25
0.0
 16
0.0
 26
0.0
 36
1.0
 17
0.0
 27
0.0
 37
0.0
 40
808.86506452969365
 41
1.9863184079601981
 42
50.0
 43
0.0
 44
0.0
 50
0.0
 51
0.0
 71
     0
 72
  2000
 73
     1
 74
     1
 75
     0
 76
     0
 77
     0
 78
     0
  0
ENDTAB
  0
TABLE
  2
LTYPE
 70
    11
  0
LTYPE
  2
CONTINUOUS
 70
     0
  3
Solid line
 72
    65
 73
     0
 40
0.0
  0
ENDTAB
  0
TABLE
  2
LAYER
 70
     5
  0
LAYER
  2
0
 70
     0
 62
     7
  6
CONTINUOUS
  0
LAYER
  2
DATA
 70
     0
 62
     7
  6
CONTINUOUS
  0
LAYER
  2
HIBINO-BASE
 70
     0
 62
     7
  6
CONTINUOUS
  0
LAYER
  2
SPEC
 70
     0
 62
     7
  6
CONTINUOUS
  0
LAYER
  2
DIMNSIONS
 70
     0
 62
     7
  6
CONTINUOUS
  0
ENDTAB
  0
TABLE
  2
STYLE
 70
     3
  0
STYLE
  2
STANDARD
 70
     0
 40
0.0
 41
1.0
 50
0.0
 71
     0
 42
0.0
  3
txt
  4
BIGFONT.SHX
  0
ENDTAB
  0
TABLE
  2
VIEW
 70
     0
  0
ENDTAB
  0
TABLE
  2
UCS
 70
     0
  0
ENDTAB
  0
TABLE
  2
APPID
 70
     3
  0
APPID
  2
ACAD
 70
     0
  0
APPID
  2
ACADANNOTATIVE
 70
     0
  0
APPID
  2
ACAD_MLEADERVER
 70
     0
  0
ENDTAB
  0
TABLE
  2
DIMSTYLE
 70
     2
  0
DIMSTYLE
  2
STANDARD
 70
     0
  3

  4

  5

  6

  7

 40
1.0
 41
0.18
 42
0.0625
 43
0.38
 44
0.18
 45
0.0
 46
0.0
 47
0.0
 48
0.0
140
0.18
141
0.09
142
0.0
143
25.399999999999999
144
1.0
145
0.0
146
1.0
147
0.09
 71
     0
 72
     0
 73
     1
 74
     1
 75
     0
 76
     0
 77
     0
 78
     0
170
     0
171
     2
172
     0
173
     0
174
     0
175
     0
176
     0
177
     0
178
     0
  0
ENDTAB
  0
ENDSEC
  0
SECTION
  2
BLOCKS
  0
BLOCK
  8
0
  2
$MODEL_SPACE
 70
     0
 10
0.0
 20
0.0
 30
0.0
  3
$MODEL_SPACE
  1

  0
ENDBLK
  5
B07
  8
0
  0
BLOCK
 67
     1
  8
0
  2
$PAPER_SPACE
 70
     0
 10
0.0
 20
0.0
 30
0.0
  3
$PAPER_SPACE
  1

  0
ENDBLK
  5
B03
 67
     1
  8
0
  0
ENDSEC
  0
SECTION
  2
ENTITIES
  0
LINE
  5
2C
  8
HIBINO-BASE
  6
CONTINUOUS
 62
     7
 10
30.0
 20
810.0
 30
0.0
 11
569.99999999999989
 21
810.0
 31
0.0
  0
LINE
  5
2D
  8
HIBINO-BASE
  6
CONTINUOUS
 62
     7
 10
569.99999999999989
 20
30.0
 30
0.0
 11
30.0
 21
30.0
 31
0.0
  0
LINE
  5
2E
  8
HIBINO-BASE
  6
CONTINUOUS
 62
     7
 10
30.0
 20
30.0
 30
0.0
 11
30.0
 21
810.0
 31
0.0
  0
TEXT
  5
2F
  8
HIBINO-BASE
 62
     7
 10
51.551999999999971
 20
10.77396660000008
 30
0.0
 40
10.800132539062499
  1
Hibino Corporation
 41
0.7
 11
51.551999999999971
 21
21.574099139062589
 31
0.0
 73
     3
  0
LINE
  5
30
  8
HIBINO-BASE
  6
CONTINUOUS
 62
     7
 10
569.99999999999989
 20
810.0
 30
0.0
 11
569.99999999999989
 21
30.0
 31
0.0
  0
LINE
  5
31
  8
HIBINO-BASE
  6
CONTINUOUS
 62
     7
 10
300.0
 20
97.500000000000057
 30
0.0
 11
569.99999999999989
 21
97.500000000000057
 31
0.0
  0
LINE
  5
32
  8
HIBINO-BASE
  6
CONTINUOUS
 62
     7
 10
300.0
 20
30.0
 30
0.0
 11
300.0
 21
97.500000000000057
 31
0.0
  0
TEXT
  5
33
  8
HIBINO-BASE
 62
     7
 10
302.69999999999987
 20
89.973919999999993
 30
0.0
 40
4.8865234374999993
  1
NOTE
 41
0.7
 11
302.69999999999987
 21
94.860443437499995
 31
0.0
 73
     3
  0
LINE
  5
34
  8
HIBINO-BASE
  6
CONTINUOUS
 62
     7
 10
405.0
 20
30.0
 30
0.0
 11
405.0
 21
97.500000000000057
 31
0.0
  0
TEXT
  5
35
  8
HIBINO-BASE
 62
     7
 10
407.69999999999987
 20
89.973919999999993
 30
0.0
 40
4.8865234374999993
  1
TITLE
 41
0.7
 11
407.69999999999987
 21
94.860443437499995
 31
0.0
 73
     3
  0
TEXT
  5
36
  8
HIBINO-BASE
 62
     7
 10
450.2051699999999
 20
10.77396660000008
 30
0.0
 40
10.800132539062499
  1
ヒビノ株式会社
 41
0.7
 11
450.2051699999999
 21
21.574099139062589
 31
0.0
 73
     3
  0
LINE
  5
37
  8
HIBINO-BASE
  6
CONTINUOUS
 62
     7
 10
300.0
 20
60.000000000000071
 30
0.0
 11
569.99999999999989
 21
60.000000000000071
 31
0.0
  0
TEXT
  5
38
  8
HIBINO-BASE
 62
     7
 10
445.19999999999987
 20
52.64287999999997
 30
0.0
 40
4.8865234374999993
  1
DRAWN
 41
0.7
 11
445.19999999999987
 21
57.529403437499973
 31
0.0
 73
     3
  0
TEXT
  5
39
  8
HIBINO-BASE
 62
     7
 10
370.19999999999987
 20
52.64287999999997
 30
0.0
 40
4.8865234374999993
  1
DATE
 41
0.7
 11
370.19999999999987
 21
57.529403437499973
 31
0.0
 73
     3
  0
TEXT
  5
3A
  8
HIBINO-BASE
 62
     7
 10
340.19999999999987
 20
52.64287999999997
 30
0.0
 40
4.8865234374999993
  1
SCALE
 41
0.7
 11
340.19999999999987
 21
57.529403437499973
 31
0.0
 73
     3
  0
TEXT
  5
3B
  8
HIBINO-BASE
 62
     7
 10
407.69999999999987
 20
52.64287999999997
 30
0.0
 40
4.8865234374999993
  1
DESIGN
 41
0.7
 11
407.69999999999987
 21
57.529403437499973
 31
0.0
 73
     3
  0
TEXT
  5
3C
  8
HIBINO-BASE
 62
     7
 10
520.19999999999993
 20
52.64287999999997
 30
0.0
 40
4.8865234374999993
  1
DRAWING NO.
 41
0.7
 11
520.19999999999993
 21
57.529403437499973
 31
0.0
 73
     3
  0
TEXT
  5
3D
  8
HIBINO-BASE
 62
     7
 10
482.69999999999987
 20
52.64287999999997
 30
0.0
 40
4.8865234374999993
  1
CHECK
 41
0.7
 11
482.69999999999987
 21
57.529403437499973
 31
0.0
 73
     3
  0
LINE
  5
3E
  8
HIBINO-BASE
  6
CONTINUOUS
 62
     7
 10
343.12499999999989
 20
33.75
 30
0.0
 11
354.37499999999989
 21
45.000000000000057
 31
0.0
  0
TEXT
  5
3F
  8
HIBINO-BASE
 62
     7
 10
341.25
 20
41.673170000000013
 30
0.0
 40
4.8865234374999993
  1
1
 41
0.7
 11
341.25
 21
46.559693437500009
 31
0.0
 73
     3
  0
LINE
  5
40
  8
HIBINO-BASE
  6
CONTINUOUS
 62
     7
 10
337.5
 20
30.0
 30
0.0
 11
337.5
 21
60.000000000000071
 31
0.0
  0
LINE
  5
41
  8
HIBINO-BASE
  6
CONTINUOUS
 62
     7
 10
367.5
 20
30.0
 30
0.0
 11
367.5
 21
60.000000000000071
 31
0.0
  0
LINE
  5
42
  8
HIBINO-BASE
  6
CONTINUOUS
 62
     7
 10
442.49999999999989
 20
60.000000000000071
 30
0.0
 11
442.49999999999989
 21
30.0
 31
0.0
  0
LINE
  5
43
  8
HIBINO-BASE
  6
CONTINUOUS
 62
     7
 10
517.49999999999989
 20
60.000000000000071
 30
0.0
 11
517.49999999999989
 21
30.0
 31
0.0
  0
LINE
  5
44
  8
HIBINO-BASE
  6
CONTINUOUS
 62
     7
 10
479.99999999999989
 20
30.0
 30
0.0
 11
479.99999999999989
 21
60.000000000000071
 31
0.0
  0
TEXT
  5
45
  8
HIBINO-BASE
 62
     7
 10
370.06961999999987
 20
38.590939999999982
 30
0.0
 40
4.8865234374999993
  1
'09.10.
 41
0.7
 11
370.06961999999987
 21
43.477463437499978
 31
0.0
 73
     3
  0
TEXT
  5
46
  8
HIBINO-BASE
 62
     7
 10
352.49999999999989
 20
36.048170000000013
 30
0.0
 40
4.8865234374999993
  1
3
 41
0.7
 11
352.49999999999989
 21
40.934693437500009
 31
0.0
 73
     3
  0
TEXT
  5
47
  8
HIBINO-BASE
 62
     7
 10
447.01743003310372
 20
38.590939999999982
 30
0.0
 40
4.8865234374999993
  1
N.Sasaki
 41
0.7
 11
447.01743003310372
 21
43.477463437499978
 31
0.0
 73
     3
  0
TEXT
  5
48
  8
HIBINO-BASE
 62
     7
 10
311.64999999999998
 20
35.928000000000033
 30
0.0
 40
9.7730468749999986
  1
A4
 41
0.7
 11
311.64999999999998
 21
45.701046875000031
 31
0.0
 73
     3
  0
TEXT
  5
49
  8
HIBINO-BASE
 62
     7
 10
302.875
 20
52.141635000000051
 30
0.0
 40
4.8865234374999993
  1
PAPER SIZE
 41
0.7
 11
302.875
 21
57.028158437500053
 31
0.0
 73
     3
  0
LINE
  5
4A
  8
SPEC
  6
CONTINUOUS
 62
     7
 10
52.5
 20
780.0
 30
0.0
 11
495.0
 21
780.0
 31
0.0
  0
LINE
  5
4B
  8
SPEC
  6
CONTINUOUS
 62
     7
 10
52.5
 20
768.75
 30
0.0
 11
495.0
 21
768.75
 31
0.0
  0
LINE
  5
4C
  8
SPEC
  6
CONTINUOUS
 62
     7
 10
52.5
 20
723.74999999999989
 30
0.0
 11
495.0
 21
723.74999999999989
 31
0.0
  0
LINE
  5
4D
  8
SPEC
  6
CONTINUOUS
 62
     7
 10
52.5
 20
735.0
 30
0.0
 11
495.0
 21
735.0
 31
0.0
  0
LINE
  5
4E
  8
SPEC
  6
CONTINUOUS
 62
     7
 10
52.5
 20
746.25
 30
0.0
 11
495.0
 21
746.25
 31
0.0
  0
LINE
  5
4F
  8
SPEC
  6
CONTINUOUS
 62
     7
 10
52.5
 20
757.5
 30
0.0
 11
495.0
 21
757.5
 31
0.0
  0
TEXT
  5
50
  8
SPEC
 62
     7
 10
151.91830902036679
 20
771.53466386082789
 30
0.0
 40
5.7009440104166647
  1
コンデンサー型 
 41
0.7
 11
151.91830902036679
 21
777.23560787124461
 31
0.0
 73
     3
  0
LINE
  5
51
  8
SPEC
  6
CONTINUOUS
 62
     7
 10
52.5
 20
780.0
 30
0.0
 11
52.5
 21
622.5
 31
0.0
  0
TEXT
  5
52
  8
SPEC
 62
     7
 10
56.25
 20
784.17980999999986
 30
0.0
 40
7.3297851562499989
  1
仕様
 41
0.7
 11
56.25
 21
791.50959515624982
 31
0.0
 73
     3
  0
LINE
  5
53
  8
SPEC
  6
CONTINUOUS
 62
     7
 10
150.0
 20
780.0
 30
0.0
 11
150.0
 21
622.5
 31
0.0
  0
LINE
  5
54
  8
SPEC
  6
CONTINUOUS
 62
     7
 10
495.0
 20
780.0
 30
0.0
 11
495.0
 21
622.5
 31
0.0
  0
TEXT
  5
55
  8
SPEC
 62
     7
 10
55.19999999999996
 20
726.54438965287852
 30
0.0
 40
5.7009440104166647
  1
最大音圧レベル
 41
0.7
 11
55.19999999999996
 21
732.24533366329524
 31
0.0
 73
     3
  0
TEXT
  5
56
  8
SPEC
 62
     7
 10
55.19999999999996
 20
771.39168345860435
 30
0.0
 40
5.7009440104166647
  1
形式
 41
0.7
 11
55.19999999999996
 21
777.09262746902118
 31
0.0
 73
     3
  0
TEXT
  5
57
  8
SPEC
 62
     7
 10
54.953728188304432
 20
737.81525165477467
 30
0.0
 40
5.7009440104166647
  1
開回路感度
 41
0.7
 11
54.953728188304432
 21
743.51619566519139
 31
0.0
 73
     3
  0
TEXT
  5
58
  8
SPEC
 62
     7
 10
55.138334975032961
 20
760.29540850810213
 30
0.0
 40
5.7009440104166647
  1
指向特性
 41
0.7
 11
55.138334975032961
 21
765.99635251851885
 31
0.0
 73
     3
  0
TEXT
  5
59
  8
SPEC
 62
     7
 10
55.19999999999996
 20
749.04540850810213
 30
0.0
 40
5.7009440104166647
  1
周波数特性
 41
0.7
 11
55.19999999999996
 21
754.74635251851885
 31
0.0
 73
     3
  0
TEXT
  5
5A
  8
SPEC
 62
     7
 10
152.42941466089621
 20
726.56472889850636
 30
0.0
 40
5.7009440104166647
  1
130dB SPL(THD 3%%%)
 41
0.7
 11
152.42941466089621
 21
732.26567290892308
 31
0.0
 73
     3
  0
TEXT
  5
5B
  8
SPEC
 62
     7
 10
152.97058533910371
 20
737.72453378547164
 30
0.0
 40
5.7009440104166647
  1
-29dBV re 1V/Pa
 41
0.7
 11
152.97058533910371
 21
743.42547779588836
 31
0.0
 73
     3
  0
TEXT
  5
5C
  8
SPEC
 62
     7
 10
152.8803902260691
 20
748.7941435594023
 30
0.0
 40
5.7009440104166647
  1
80Hz～20kHz
 41
0.7
 11
152.8803902260691
 21
754.49508756981902
 31
0.0
 73
     3
  0
TEXT
  5
5D
  8
SPEC
 62
     7
 10
152.0986992464359
 20
760.16440371011515
 30
0.0
 40
5.7009440104166647
  1
カーディオイド
 41
0.7
 11
152.0986992464359
 21
765.86534772053176
 31
0.0
 73
     3
  0
LINE
  5
5E
  8
SPEC
  6
CONTINUOUS
 62
     7
 10
52.5
 20
712.5
 30
0.0
 11
495.0
 21
712.5
 31
0.0
  0
LINE
  5
5F
  8
SPEC
  6
CONTINUOUS
 62
     7
 10
52.5
 20
701.25
 30
0.0
 11
495.0
 21
701.25
 31
0.0
  0
LINE
  5
60
  8
SPEC
  6
CONTINUOUS
 62
     7
 10
52.5
 20
690.0
 30
0.0
 11
495.0
 21
690.0
 31
0.0
  0
LINE
  5
61
  8
SPEC
  6
CONTINUOUS
 62
     7
 10
52.5
 20
678.75
 30
0.0
 11
495.0
 21
678.75
 31
0.0
  0
TEXT
  5
62
  8
SPEC
 62
     7
 10
55.077154737397642
 20
715.19134070027269
 30
0.0
 40
5.7009440104166647
  1
等価雑音レベル
 41
0.7
 11
55.077154737397642
 21
720.89228471068952
 31
0.0
 73
     3
  0
TEXT
  5
63
  8
SPEC
 62
     7
 10
152.6999999999999
 20
715.49412523918613
 30
0.0
 40
5.7009440104166647
  1
22dB SPL(Aウェイト)
 41
0.7
 11
152.6999999999999
 21
721.19506924960285
 31
0.0
 73
     3
  0
TEXT
  5
64
  8
SPEC
 62
     7
 10
54.791160394466523
 20
703.98170897831335
 30
0.0
 40
5.7009440104166647
  1
インピーダンス
 41
0.7
 11
54.791160394466523
 21
709.68265298873018
 31
0.0
 73
     3
  0
TEXT
  5
65
  8
SPEC
 62
     7
 10
152.6999999999999
 20
703.61375333333308
 30
0.0
 40
5.7009440104166647
  1
200\U+03A9以下
 41
0.7
 11
152.6999999999999
 21
709.3146973437498
 31
0.0
 73
     3
  0
TEXT
  5
66
  8
SPEC
 62
     7
 10
54.424427567479498
 20
692.69031014702625
 30
0.0
 40
5.7009440104166647
  1
コネクター
 41
0.7
 11
54.424427567479498
 21
698.39125415744286
 31
0.0
 73
     3
  0
TEXT
  5
67
  8
SPEC
 62
     7
 10
151.44124082995651
 20
692.54357607191082
 30
0.0
 40
5.7009440104166647
  1
ミニXLR3ピン(メス)
 41
0.7
 11
151.44124082995651
 21
698.24452008232754
 31
0.0
 73
     3
  0
TEXT
  5
68
  8
SPEC
 62
     7
 10
54.833201902357587
 20
681.52130677515765
 30
0.0
 40
5.7009440104166647
  1
ケーブル長
 41
0.7
 11
54.833201902357587
 21
687.22225078557437
 31
0.0
 73
     3
  0
TEXT
  5
69
  8
SPEC
 62
     7
 10
152.43026589213349
 20
681.47339881048845
 30
0.0
 40
5.7009440104166647
  1
1490mm
 41
0.7
 11
152.43026589213349
 21
687.17434282090517
 31
0.0
 73
     3
  0
TEXT
  5
6A
  8
SPEC
 62
     7
 10
54.944374937980022
 20
670.46811998969565
 30
0.0
 40
5.7009440104166647
  1
電源
 41
0.7
 11
54.944374937980022
 21
676.16906400011237
 31
0.0
 73
     3
  0
TEXT
  5
6B
  8
SPEC
 62
     7
 10
152.6999999999999
 20
670.13328651880522
 30
0.0
 40
5.700933749999999
  1
別売のAKGワイヤレスシステムのボディーパック型 送信機、
 41
0.7
 11
152.6999999999999
 21
675.8342202688051
 31
0.0
 73
     3
  0
LINE
  5
6C
  8
SPEC
  6
CONTINUOUS
 62
     7
 10
52.5
 20
656.25
 30
0.0
 11
495.0
 21
656.25
 31
0.0
  0
LINE
  5
6D
  8
SPEC
  6
CONTINUOUS
 62
     7
 10
52.5
 20
645.0
 30
0.0
 11
495.0
 21
645.0
 31
0.0
  0
LINE
  5
6E
  8
SPEC
  6
CONTINUOUS
 62
     7
 10
52.5
 20
633.75
 30
0.0
 11
495.0
 21
633.75
 31
0.0
  0
LINE
  5
6F
  8
SPEC
  6
CONTINUOUS
 62
     7
 10
52.5
 20
622.5
 30
0.0
 11
495.0
 21
622.5
 31
0.0
  0
TEXT
  5
70
  8
SPEC
 62
     7
 10
152.16095656238971
 20
658.7485256594025
 30
0.0
 40
5.700933749999999
  1
またはポータブルミキサー(B 29 L)に対応
 41
0.7
 11
152.16095656238971
 21
664.44945940940249
 31
0.0
 73
     3
  0
TEXT
  5
71
  8
SPEC
 62
     7
 10
152.54620687850331
 20
636.87288972841429
 30
0.0
 40
5.7009440104166647
  1
約46g
 41
0.7
 11
152.54620687850331
 21
642.57383373883113
 31
0.0
 73
     3
  0
TEXT
  5
72
  8
SPEC
 62
     7
 10
152.50770524494109
 20
647.94168106795621
 30
0.0
 40
5.7009440104166647
  1
134(W)\U+00D7195(D)mm(突起は含まず) 
 41
0.7
 11
152.50770524494109
 21
653.64262507837293
 31
0.0
 73
     3
  0
TEXT
  5
73
  8
SPEC
 62
     7
 10
54.940563177877038
 20
648.27330101031475
 30
0.0
 40
5.7009440104166647
  1
寸法
 41
0.7
 11
54.940563177877038
 21
653.97424502073136
 31
0.0
 73
     3
  0
TEXT
  5
74
  8
SPEC
 62
     7
 10
54.979417613574967
 20
636.67250641715157
 30
0.0
 40
5.7009440104166647
  1
重量
 41
0.7
 11
54.979417613574967
 21
642.37345042756829
 31
0.0
 73
     3
  0
TEXT
  5
75
  8
SPEC
 62
     7
 10
55.141414758980922
 20
625.49449236925705
 30
0.0
 40
5.7009440104166647
  1
付属品
 41
0.7
 11
55.141414758980922
 21
631.19543637967365
 31
0.0
 73
     3
  0
TEXT
  5
76
  8
SPEC
 62
     7
 10
152.03068205313321
 20
625.78365616917688
 30
0.0
 40
5.7009440104166647
  1
ウインドスクリーン(W 444)モイスチャーシールド 
 41
0.7
 11
152.03068205313321
 21
631.4846001795936
 31
0.0
 73
     3
  0
TEXT
  5
77
  8
DIMNSIONS
 62
     7
 10
240.0
 20
66.808470000000028
 30
0.0
 40
7.3297851562499989
  1
(単位：mm)
 41
0.7
 11
240.0
 21
74.138255156250025
 31
0.0
 73
     3
  0
LINE
  5
78
  8
DIMNSIONS
  6
CONTINUOUS
 62
     7
 10
419.4412913255137
 20
179.68223227127939
 30
0.0
 11
462.5
 21
179.68223227127939
 31
0.0
  0
LINE
  5
79
  8
DIMNSIONS
  6
CONTINUOUS
 62
     7
 10
456.25
 20
179.68223227127939
 30
0.0
 11
456.25
 21
431.25
 31
0.0
  0
LINE
  5
7A
  8
DIMNSIONS
  6
CONTINUOUS
 62
     7
 10
456.25
 20
179.68223227127939
 30
0.0
 11
453.69778394209362
 21
189.20723227127939
 31
0.0
  0
LINE
  5
7B
  8
DIMNSIONS
  6
CONTINUOUS
 62
     7
 10
456.25
 20
179.68223227127939
 30
0.0
 11
458.80221605790632
 21
189.20723227127939
 31
0.0
  0
LINE
  5
7C
  8
DIMNSIONS
  6
CONTINUOUS
 62
     7
 10
115.45627103361861
 20
481.25
 30
0.0
 11
406.25
 21
481.25
 31
0.0
  0
LINE
  5
7D
  8
DIMNSIONS
  6
CONTINUOUS
 62
     7
 10
115.45627103361861
 20
481.25
 30
0.0
 11
124.9812710336186
 21
483.80221605790632
 31
0.0
  0
LINE
  5
7E
  8
DIMNSIONS
  6
CONTINUOUS
 62
     7
 10
115.45627103361861
 20
481.25
 30
0.0
 11
124.9812710336186
 21
478.69778394209362
 31
0.0
  0
ARC
  5
7F
  8
DIMNSIONS
  6
CONTINUOUS
 62
     7
 10
406.25
 20
431.25
 30
0.0
 40
50.0
 50
0.0
 51
90.0
  0
TEXT
  5
80
  8
DIMNSIONS
 62
     7
 10
268.69999999999999
 20
484.29526749182179
 30
0.0
 40
8.1442057291666661
  1
1490
 41
0.7
 11
268.69999999999999
 21
492.43947322098848
 31
0.0
 73
     3
  0
LINE
  5
81
  8
DIMNSIONS
  6
CONTINUOUS
 62
     7
 10
115.45627103361861
 20
426.90062946692331
 30
0.0
 11
115.45627103361861
 21
487.5
 31
0.0
  0
LINE
  5
82
  8
DIMNSIONS
  6
CONTINUOUS
 62
     7
 10
121.59880216154799
 20
442.75
 30
0.0
 11
121.59880216154799
 21
468.5
 31
0.0
  0
LINE
  5
83
  8
DIMNSIONS
  6
CONTINUOUS
 62
     7
 10
255.59880216154801
 20
442.75
 30
0.0
 11
255.59880216154801
 21
468.5
 31
0.0
  0
LINE
  5
84
  8
DIMNSIONS
  6
CONTINUOUS
 62
     7
 10
121.59880216154799
 20
462.5
 30
0.0
 11
255.59880216154801
 21
462.5
 31
0.0
  0
LINE
  5
85
  8
DIMNSIONS
  6
CONTINUOUS
 62
     7
 10
121.59880216154799
 20
462.5
 30
0.0
 11
129.10066983732921
 21
464.51011938545071
 31
0.0
  0
LINE
  5
86
  8
DIMNSIONS
  6
CONTINUOUS
 62
     7
 10
121.59880216154799
 20
462.5
 30
0.0
 11
129.10066983732921
 21
460.48988061454918
 31
0.0
  0
LINE
  5
87
  8
DIMNSIONS
  6
CONTINUOUS
 62
     7
 10
255.59880216154801
 20
462.5
 30
0.0
 11
248.09693448576681
 21
460.48988061454918
 31
0.0
  0
LINE
  5
88
  8
DIMNSIONS
  6
CONTINUOUS
 62
     7
 10
255.59880216154801
 20
462.5
 30
0.0
 11
248.09693448576681
 21
464.51011938545071
 31
0.0
  0
TEXT
  5
89
  8
DIMNSIONS
 62
     7
 10
180.66130216154801
 20
465.48166666666663
 30
0.0
 40
8.1442057291666661
  1
134
 41
0.7
 11
180.66130216154801
 21
473.6258723958332
 31
0.0
 73
     3
  0
LINE
  5
8A
  8
DIMNSIONS
  6
CONTINUOUS
 62
     7
 10
178.31999999999999
 20
437.32910574379372
 30
0.0
 11
87.75
 21
437.32910574379372
 31
0.0
  0
LINE
  5
8B
  8
DIMNSIONS
  6
CONTINUOUS
 62
     7
 10
150.0
 20
242.32910574379369
 30
0.0
 11
87.75
 21
242.32910574379369
 31
0.0
  0
LINE
  5
8C
  8
DIMNSIONS
  6
CONTINUOUS
 62
     7
 10
93.75
 20
437.32910574379372
 30
0.0
 11
93.75
 21
242.32910574379369
 31
0.0
  0
LINE
  5
8D
  8
DIMNSIONS
  6
CONTINUOUS
 62
     7
 10
93.75
 20
437.32910574379372
 30
0.0
 11
95.760119385450722
 21
429.82723806801249
 31
0.0
  0
LINE
  5
8E
  8
DIMNSIONS
  6
CONTINUOUS
 62
     7
 10
93.75
 20
437.32910574379372
 30
0.0
 11
91.739880614549264
 21
429.82723806801249
 31
0.0
  0
LINE
  5
8F
  8
DIMNSIONS
  6
CONTINUOUS
 62
     7
 10
93.75
 20
242.32910574379369
 30
0.0
 11
91.739880614549264
 21
249.830973419575
 31
0.0
  0
LINE
  5
90
  8
DIMNSIONS
  6
CONTINUOUS
 62
     7
 10
93.75
 20
242.32910574379369
 30
0.0
 11
95.760119385450722
 21
249.830973419575
 31
0.0
  0
TEXT
  5
91
  8
DIMNSIONS
 62
     7
 10
90.768333333333359
 20
331.89160574379378
 30
0.0
 40
8.1442057291666661
  1
195
 50
90.0
 41
0.7
 11
82.624127604166688
 21
331.89160574379378
 31
0.0
 73
     3
  0
TEXT
  5
92
  8
DATA
 62
     7
 10
449.99999999999989
 20
63.392670000000031
 30
0.0
 40
7.3297851562499989
  1
C 555 L
 41
0.7
 11
449.99999999999989
 21
70.722455156250021
 31
0.0
 73
     3
  0
TEXT
  5
93
  8
DATA
 62
     7
 10
449.99999999999989
 20
85.142670000000024
 30
0.0
 40
7.3297851562499989
  1
AKG
 41
0.7
 11
449.99999999999989
 21
92.472455156250007
 31
0.0
 73
     3
  0
TEXT
  5
94
  8
DATA
 62
     7
 10
442.49999999999989
 20
74.71180140000007
 30
0.0
 40
4.8865311328124994
  1
ヘットウォーン・マイクロホン
 41
0.7
 11
442.49999999999989
 21
79.598332532812563
 31
0.0
 73
     3
  0
TEXT
  5
95
  8
DATA
 62
     7
 10
60.0
 20
42.713999999999977
 30
0.0
 40
4.8865234374999993
  1
仕様および外観は予告なく変更されることがありますので、ご了承ください。
 41
0.7
 11
60.0
 21
47.600523437499987
 31
0.0
 73
     3
  0
LINE
  5
96
  8
DATA
  6
CONTINUOUS
 62
     7
 10
413.84129132551368
 20
215.18196227128001
 30
0.0
 11
414.59129132551368
 21
202.18204227127941
 31
0.0
  0
LINE
  5
97
  8
DATA
  6
CONTINUOUS
 62
     7
 10
404.35500688249772
 20
215.18196227128001
 30
0.0
 11
403.60500688249772
 21
202.18204227127941
 31
0.0
  0
LINE
  5
98
  8
DATA
  6
CONTINUOUS
 62
     7
 10
413.84129132551368
 20
215.18196227128001
 30
0.0
 11
404.84140132551391
 21
215.18196227128001
 31
0.0
  0
LINE
  5
99
  8
DATA
  6
CONTINUOUS
 62
     7
 10
414.59129132551368
 20
202.18204227127941
 30
0.0
 11
414.59129132551368
 21
195.68199227127951
 31
0.0
  0
LINE
  5
9A
  8
DATA
  6
CONTINUOUS
 62
     7
 10
403.60500688249772
 20
202.18204227127941
 30
0.0
 11
403.60500688249772
 21
195.68199227127951
 31
0.0
  0
LINE
  5
9B
  8
DATA
  6
CONTINUOUS
 62
     7
 10
414.1048968824976
 20
195.68199227127951
 30
0.0
 11
403.60500688249772
 21
195.68199227127951
 31
0.0
  0
LINE
  5
9C
  8
DATA
  6
CONTINUOUS
 62
     7
 10
414.59129132551368
 20
195.68199227127951
 30
0.0
 11
414.59129132551368
 21
188.1822122712793
 31
0.0
  0
LINE
  5
9D
  8
DATA
  6
CONTINUOUS
 62
     7
 10
403.60500688249772
 20
188.1822122712793
 30
0.0
 11
403.60500688249772
 21
195.68199227127951
 31
0.0
  0
LINE
  5
9E
  8
DATA
  6
CONTINUOUS
 62
     7
 10
414.1048968824976
 20
188.1822122712793
 30
0.0
 11
403.60500688249772
 21
188.1822122712793
 31
0.0
  0
LINE
  5
9F
  8
DATA
  6
CONTINUOUS
 62
     7
 10
405.3414013255138
 20
188.1822122712793
 30
0.0
 11
405.3414013255138
 21
179.68223227127939
 31
0.0
  0
LINE
  5
A0
  8
DATA
  6
CONTINUOUS
 62
     7
 10
405.3414013255138
 20
179.68223227127939
 30
0.0
 11
413.34129132551368
 21
179.68223227127939
 31
0.0
  0
LINE
  5
A1
  8
DATA
  6
CONTINUOUS
 62
     7
 10
414.1048968824976
 20
195.58207227127929
 30
0.0
 11
403.60500688249772
 21
195.58207227127929
 31
0.0
  0
LINE
  5
A2
  8
DATA
  6
CONTINUOUS
 62
     7
 10
414.3814113255138
 20
180.1822322712793
 30
0.0
 11
413.34129132551368
 21
180.1822322712793
 31
0.0
  0
LINE
  5
A3
  8
DATA
  6
CONTINUOUS
 62
     7
 10
413.34129132551368
 20
180.38211227127931
 30
0.0
 11
414.14148132551378
 21
180.38211227127931
 31
0.0
  0
POLYLINE
  5
A4
  8
DATA
  6
CONTINUOUS
 62
     7
 66
     1
 10
0.0
 20
0.0
 30
0.0
 70
   129
  0
VERTEX
  5
B33
  8
DATA
  6
CONTINUOUS
 62
     7
 10
413.55238132551369
 20
184.70720227127941
 30
0.0
  0
VERTEX
  5
B34
  8
DATA
  6
CONTINUOUS
 62
     7
 10
413.5519637941635
 20
184.7058395244855
 30
0.0
  0
VERTEX
  5
B35
  8
DATA
  6
CONTINUOUS
 62
     7
 10
413.5519637941635
 20
184.70583952448541
 30
0.0
 42
0.051521518343754
  0
VERTEX
  5
B36
  8
DATA
  6
CONTINUOUS
 62
     7
 10
413.5472913255137
 20
184.68210227127929
 30
0.0
  0
SEQEND
  5
B37
  8
DATA
  6
CONTINUOUS
 62
     7
  0
LINE
  5
AA
  8
DATA
  6
CONTINUOUS
 62
     7
 10
414.14148132551378
 20
180.38211227127931
 30
0.0
 11
413.34532132551379
 21
184.6581222712793
 31
0.0
  0
POLYLINE
  5
AB
  8
DATA
  6
CONTINUOUS
 62
     7
 66
     1
 10
0.0
 20
0.0
 30
0.0
 70
   129
  0
VERTEX
  5
B38
  8
DATA
  6
CONTINUOUS
 62
     7
 10
413.55238132551369
 20
184.70720227127941
 30
0.0
  0
VERTEX
  5
B39
  8
DATA
  6
CONTINUOUS
 62
     7
 10
413.5519637941635
 20
184.7058395244855
 30
0.0
  0
VERTEX
  5
B3A
  8
DATA
  6
CONTINUOUS
 62
     7
 10
413.5519637941635
 20
184.70583952448541
 30
0.0
 42
0.051521518343754
  0
VERTEX
  5
B3B
  8
DATA
  6
CONTINUOUS
 62
     7
 10
413.5472913255137
 20
184.68210227127929
 30
0.0
  0
SEQEND
  5
B3C
  8
DATA
  6
CONTINUOUS
 62
     7
  0
LINE
  5
B1
  8
DATA
  6
CONTINUOUS
 62
     7
 10
413.91839132551371
 20
187.43411227127939
 30
0.0
 11
414.05839132551381
 21
187.58121227127941
 31
0.0
  0
LINE
  5
B2
  8
DATA
  6
CONTINUOUS
 62
     7
 10
414.3511913255137
 20
187.18350227127939
 30
0.0
 11
414.05839132551381
 21
187.58121227127941
 31
0.0
  0
LINE
  5
B3
  8
DATA
  6
CONTINUOUS
 62
     7
 10
414.12968132551367
 20
187.14592227127929
 30
0.0
 11
413.91839132551371
 21
187.43411227127939
 31
0.0
  0
LINE
  5
B4
  8
DATA
  6
CONTINUOUS
 62
     7
 10
414.12968132551367
 20
187.14592227127929
 30
0.0
 11
413.34832132551378
 21
184.7061222712793
 31
0.0
  0
LINE
  5
B5
  8
DATA
  6
CONTINUOUS
 62
     7
 10
413.55238132551369
 20
184.70720227127941
 30
0.0
 11
414.3511913255137
 21
187.18350227127939
 31
0.0
  0
LINE
  5
B6
  8
DATA
  6
CONTINUOUS
 62
     7
 10
413.5493913255138
 20
184.6581222712793
 30
0.0
 11
414.3814113255138
 21
180.1822322712793
 31
0.0
  0
POLYLINE
  5
B7
  8
DATA
  6
CONTINUOUS
 62
     7
 66
     1
 10
0.0
 20
0.0
 30
0.0
 70
   129
  0
VERTEX
  5
B3D
  8
DATA
  6
CONTINUOUS
 62
     7
 10
413.55238132551369
 20
184.70720227127941
 30
0.0
  0
VERTEX
  5
B3E
  8
DATA
  6
CONTINUOUS
 62
     7
 10
413.5519637941635
 20
184.7058395244855
 30
0.0
  0
VERTEX
  5
B3F
  8
DATA
  6
CONTINUOUS
 62
     7
 10
413.5519637941635
 20
184.70583952448541
 30
0.0
 42
0.051521518343754
  0
VERTEX
  5
B40
  8
DATA
  6
CONTINUOUS
 62
     7
 10
413.5472913255137
 20
184.68210227127929
 30
0.0
  0
SEQEND
  5
B41
  8
DATA
  6
CONTINUOUS
 62
     7
  0
LINE
  5
BD
  8
DATA
  6
CONTINUOUS
 62
     7
 10
411.84129132551368
 20
187.68219227127929
 30
0.0
 11
411.84129132551368
 21
185.1821422712793
 31
0.0
  0
LINE
  5
BE
  8
DATA
  6
CONTINUOUS
 62
     7
 10
411.84129132551368
 20
187.68219227127929
 30
0.0
 11
413.34129132551368
 21
187.68219227127929
 31
0.0
  0
LINE
  5
BF
  8
DATA
  6
CONTINUOUS
 62
     7
 10
411.84129132551368
 20
185.1821422712793
 30
0.0
 11
413.34129132551368
 21
185.1821422712793
 31
0.0
  0
LINE
  5
C0
  8
DATA
  6
CONTINUOUS
 62
     7
 10
413.34129132551368
 20
187.68219227127929
 30
0.0
 11
413.34129132551368
 21
188.1822122712793
 31
0.0
  0
LINE
  5
C1
  8
DATA
  6
CONTINUOUS
 62
     7
 10
413.34129132551368
 20
185.1821422712793
 30
0.0
 11
413.34129132551368
 21
179.68223227127939
 31
0.0
  0
LINE
  5
C2
  8
DATA
  6
CONTINUOUS
 62
     7
 10
413.33230132551392
 20
185.1972122712794
 30
0.0
 11
413.33230132551392
 21
186.8501022712793
 31
0.0
  0
LINE
  5
C3
  8
DATA
  6
CONTINUOUS
 62
     7
 10
413.33230132551392
 20
186.8501022712793
 30
0.0
 11
413.68430132551379
 21
186.8501022712793
 31
0.0
  0
LINE
  5
C4
  8
DATA
  6
CONTINUOUS
 62
     7
 10
413.68430132551379
 20
186.8501022712793
 30
0.0
 11
413.34129132551368
 21
185.1821422712793
 31
0.0
  0
LINE
  5
C5
  8
DATA
  6
CONTINUOUS
 62
     7
 10
409.79129132551378
 20
202.18204227127941
 30
0.0
 11
409.3413113255138
 21
208.1819222712796
 31
0.0
  0
LINE
  5
C6
  8
DATA
  6
CONTINUOUS
 62
     7
 10
408.89139132551372
 20
202.18204227127941
 30
0.0
 11
409.3413113255138
 21
208.1819222712796
 31
0.0
  0
LINE
  5
C7
  8
DATA
  6
CONTINUOUS
 62
     7
 10
408.89139132551372
 20
202.18204227127941
 30
0.0
 11
409.79129132551378
 21
202.18204227127941
 31
0.0
  0
LINE
  5
C8
  8
DATA
  6
CONTINUOUS
 62
     7
 10
413.79129132551378
 20
202.18204227127941
 30
0.0
 11
413.34129132551368
 21
208.1819222712796
 31
0.0
  0
LINE
  5
C9
  8
DATA
  6
CONTINUOUS
 62
     7
 10
412.89139132551378
 20
202.18204227127941
 30
0.0
 11
413.34129132551368
 21
208.1819222712796
 31
0.0
  0
LINE
  5
CA
  8
DATA
  6
CONTINUOUS
 62
     7
 10
413.79129132551378
 20
202.18204227127941
 30
0.0
 11
412.89139132551378
 21
202.18204227127941
 31
0.0
  0
LINE
  5
CB
  8
DATA
  6
CONTINUOUS
 62
     7
 10
411.79129132551373
 20
202.18204227127941
 30
0.0
 11
411.34129132551368
 21
208.1819222712796
 31
0.0
  0
LINE
  5
CC
  8
DATA
  6
CONTINUOUS
 62
     7
 10
410.89139132551372
 20
202.18204227127941
 30
0.0
 11
411.34129132551368
 21
208.1819222712796
 31
0.0
  0
LINE
  5
CD
  8
DATA
  6
CONTINUOUS
 62
     7
 10
411.79129132551373
 20
202.18204227127941
 30
0.0
 11
410.89139132551372
 21
202.18204227127941
 31
0.0
  0
LINE
  5
CE
  8
DATA
  6
CONTINUOUS
 62
     7
 10
407.79129132551373
 20
202.18204227127941
 30
0.0
 11
407.3414013255138
 21
208.1819222712796
 31
0.0
  0
LINE
  5
CF
  8
DATA
  6
CONTINUOUS
 62
     7
 10
406.89139132551372
 20
202.18204227127941
 30
0.0
 11
407.3414013255138
 21
208.1819222712796
 31
0.0
  0
LINE
  5
D0
  8
DATA
  6
CONTINUOUS
 62
     7
 10
407.79129132551373
 20
202.18204227127941
 30
0.0
 11
406.89139132551372
 21
202.18204227127941
 31
0.0
  0
LINE
  5
D1
  8
DATA
  6
CONTINUOUS
 62
     7
 10
405.79129132551378
 20
202.18204227127941
 30
0.0
 11
405.3414013255138
 21
208.1819222712796
 31
0.0
  0
LINE
  5
D2
  8
DATA
  6
CONTINUOUS
 62
     7
 10
404.89141132551367
 20
202.18204227127941
 30
0.0
 11
405.3414013255138
 21
208.1819222712796
 31
0.0
  0
LINE
  5
D3
  8
DATA
  6
CONTINUOUS
 62
     7
 10
405.79129132551378
 20
202.18204227127941
 30
0.0
 11
404.89141132551367
 21
202.18204227127941
 31
0.0
  0
CIRCLE
  5
D4
  8
DATA
  6
CONTINUOUS
 62
     7
 10
410.2781684224916
 20
171.6699674270163
 30
0.0
 40
0.6000200000000575
  0
CIRCLE
  5
D5
  8
DATA
  6
CONTINUOUS
 62
     7
 10
410.2781684224916
 20
167.6699674270163
 30
0.0
 40
0.5999300000000574
  0
CIRCLE
  5
D6
  8
DATA
  6
CONTINUOUS
 62
     7
 10
407.73764132551372
 20
169.6699674270163
 30
0.0
 40
0.599900000000048
  0
LINE
  5
D7
  8
DATA
  6
CONTINUOUS
 62
     7
 10
413.86753132551371
 20
170.6699674270163
 30
0.0
 11
413.09165132551368
 21
170.6699674270163
 31
0.0
  0
LINE
  5
D8
  8
DATA
  6
CONTINUOUS
 62
     7
 10
413.86753132551371
 20
168.6699674270163
 30
0.0
 11
413.09165132551368
 21
168.6699674270163
 31
0.0
  0
LINE
  5
D9
  8
DATA
  6
CONTINUOUS
 62
     7
 10
412.48764132551378
 20
171.8359774270163
 30
0.0
 11
412.48764132551378
 21
167.50508742701629
 31
0.0
  0
ARC
  5
DA
  8
DATA
  6
CONTINUOUS
 62
     7
 10
409.73764132551378
 20
169.6699674270163
 30
0.0
 40
3.4999118674761358
 50
16.601979754991628
 51
343.39802024500841
  0
ARC
  5
DB
  8
DATA
  6
CONTINUOUS
 62
     7
 10
409.73764132551378
 20
169.6699674270163
 30
0.0
 40
4.2492342147850763
 50
13.611460399916989
 51
346.40132609757899
  0
LINE
  5
DC
  8
DATA
  6
CONTINUOUS
 62
     7
 10
412.81263132551379
 20
171.34096742701621
 30
0.0
 11
412.81263132551379
 21
168.00006742701629
 31
0.0
  0
LINE
  5
DD
  8
DATA
  6
CONTINUOUS
 62
     7
 10
414.48764132551372
 20
170.57006742701611
 30
0.0
 11
414.48764132551372
 21
168.7700974270162
 31
0.0
  0
LINE
  5
DE
  8
DATA
  6
CONTINUOUS
 62
     7
 10
414.48764132551372
 20
168.7700974270162
 30
0.0
 11
412.92653132551368
 21
168.7700974270162
 31
0.0
  0
LINE
  5
DF
  8
DATA
  6
CONTINUOUS
 62
     7
 10
412.92653132551368
 20
168.7700974270162
 30
0.0
 11
412.92653132551368
 21
170.57006742701611
 31
0.0
  0
LINE
  5
E0
  8
DATA
  6
CONTINUOUS
 62
     7
 10
412.92653132551368
 20
170.57006742701611
 30
0.0
 11
414.48764132551372
 21
170.57006742701611
 31
0.0
  0
CIRCLE
  5
E1
  8
DATA
  6
CONTINUOUS
 62
     7
 10
409.73764132551378
 20
169.6699674270163
 30
0.0
 40
5.2499100000000283
  0
LINE
  5
E2
  8
DATA
  6
CONTINUOUS
 62
     7
 10
414.76853132551372
 20
171.1699674270163
 30
0.0
 11
415.55865132551372
 21
171.1699674270163
 31
0.0
  0
LINE
  5
E3
  8
DATA
  6
CONTINUOUS
 62
     7
 10
415.55865132551372
 20
168.1699674270163
 30
0.0
 11
414.76853132551372
 21
168.1699674270163
 31
0.0
  0
ARC
  5
E4
  8
DATA
  6
CONTINUOUS
 62
     7
 10
414.81165132551371
 20
169.6699674270163
 30
0.0
 40
1.675711490680905
 50
296.4733046109576
 51
63.526695389042331
  0
CIRCLE
  5
E5
  8
DATA
  6
CONTINUOUS
 62
     7
 10
409.73764132551378
 20
169.6699674270163
 30
0.0
 40
5.2499100000000283
  0
ARC
  5
E6
  8
DATA
  6
CONTINUOUS
 62
     7
 10
414.41535132551383
 20
191.71412227127951
 30
0.0
 40
1.6756891300298029
 50
296.47330338667717
 51
63.527001456073229
  0
LINE
  5
E7
  8
DATA
  6
CONTINUOUS
 62
     7
 10
415.16234132551369
 20
193.21413227127951
 30
0.0
 11
414.59129132551368
 21
193.21413227127951
 31
0.0
  0
LINE
  5
E8
  8
DATA
  6
CONTINUOUS
 62
     7
 10
415.16234132551369
 20
190.21414227127951
 30
0.0
 11
414.59129132551368
 21
190.21414227127951
 31
0.0
  0
LINE
  5
E9
  8
DATA
  6
CONTINUOUS
 62
     7
 10
411.34134632551383
 20
232.18196227128021
 30
0.0
 11
407.34134632551383
 21
232.18196227128021
 31
0.0
  0
LINE
  5
EA
  8
DATA
  6
CONTINUOUS
 62
     7
 10
411.84134632551383
 20
215.18196227128001
 30
0.0
 11
411.34134632551383
 21
232.18196227128021
 31
0.0
  0
LINE
  5
EB
  8
DATA
  6
CONTINUOUS
 62
     7
 10
406.84134632551383
 20
215.18196227128001
 30
0.0
 11
407.34134632551383
 21
232.18196227128021
 31
0.0
  0
LINE
  5
EC
  8
DATA
  6
CONTINUOUS
 62
     7
 10
360.34134632551383
 20
438.98190032963379
 30
0.0
 11
197.0
 21
438.98190032963379
 31
0.0
  0
LINE
  5
ED
  8
DATA
  6
CONTINUOUS
 62
     7
 10
358.34134632551383
 20
436.98190032963379
 30
0.0
 11
197.0
 21
436.98190032963379
 31
0.0
  0
LINE
  5
EE
  8
DATA
  6
CONTINUOUS
 62
     7
 10
159.04212912009871
 20
428.46771280025678
 30
0.0
 11
159.04208503125059
 21
428.46744862561371
 31
0.0
  0
LINE
  5
EF
  8
DATA
  6
CONTINUOUS
 62
     7
 10
157.83144505163071
 20
425.44038681826902
 30
0.0
 11
153.59343500117461
 21
423.6249765263853
 31
0.0
  0
LINE
  5
F0
  8
DATA
  6
CONTINUOUS
 62
     7
 10
158.73915019757229
 20
428.77007528550388
 30
0.0
 11
158.73915019757229
 21
428.77069172278277
 31
0.0
  0
LINE
  5
F1
  8
DATA
  6
CONTINUOUS
 62
     7
 10
159.04182058759059
 20
428.46771280025678
 30
0.0
 11
159.04212912009871
 21
428.46771280025678
 31
0.0
  0
LINE
  5
F2
  8
DATA
  6
CONTINUOUS
 62
     7
 10
152.68572985523289
 20
423.92795544891129
 30
0.0
 11
152.9887087777586
 21
423.6249765263853
 31
0.0
  0
POLYLINE
  5
F3
  8
DATA
  6
CONTINUOUS
 62
     7
 66
     1
 10
0.0
 20
0.0
 30
0.0
 70
   128
  0
VERTEX
  5
B42
  8
DATA
  6
CONTINUOUS
 62
     7
 10
158.43617127504589
 20
429.07367064530871
 30
0.0
  0
VERTEX
  5
B43
  8
DATA
  6
CONTINUOUS
 62
     7
 10
158.73915019757229
 20
428.77069172278277
 30
0.0
  0
VERTEX
  5
B44
  8
DATA
  6
CONTINUOUS
 62
     7
 10
159.04212912009871
 20
428.46771280025678
 30
0.0
  0
SEQEND
  5
B45
  8
DATA
  6
CONTINUOUS
 62
     7
  0
POLYLINE
  5
F8
  8
DATA
  6
CONTINUOUS
 62
     7
 66
     1
 10
0.0
 20
0.0
 30
0.0
  0
VERTEX
  5
B46
  8
DATA
  6
CONTINUOUS
 62
     7
 10
158.7379122831581
 20
428.77131194059513
 30
0.0
  0
VERTEX
  5
B47
  8
DATA
  6
CONTINUOUS
 62
     7
 10
158.73915019757229
 20
428.77069172278277
 30
0.0
  0
VERTEX
  5
B48
  8
DATA
  6
CONTINUOUS
 62
     7
 10
159.04212912009871
 20
428.46771280025678
 30
0.0
  0
SEQEND
  5
B49
  8
DATA
  6
CONTINUOUS
 62
     7
  0
POLYLINE
  5
FE
  8
DATA
  6
CONTINUOUS
 62
     7
 66
     1
 10
0.0
 20
0.0
 30
0.0
  0
VERTEX
  5
B4A
  8
DATA
  6
CONTINUOUS
 62
     7
 10
152.081003631817
 20
426.652302508373
 30
0.0
  0
VERTEX
  5
B4B
  8
DATA
  6
CONTINUOUS
 62
     7
 10
154.50237176875299
 20
428.46771280025678
 30
0.0
  0
VERTEX
  5
B4C
  8
DATA
  6
CONTINUOUS
 62
     7
 10
157.2267188282147
 20
429.3741863245624
 30
0.0
  0
SEQEND
  5
B4D
  8
DATA
  6
CONTINUOUS
 62
     7
  0
POLYLINE
  5
104
  8
DATA
  6
CONTINUOUS
 62
     7
 66
     1
 10
0.0
 20
0.0
 30
0.0
 70
   128
  0
VERTEX
  5
B4E
  8
DATA
  6
CONTINUOUS
 62
     7
 10
151.77802470929061
 20
425.1374078957428
 30
0.0
  0
VERTEX
  5
B4F
  8
DATA
  6
CONTINUOUS
 62
     7
 10
151.77802470929061
 20
425.44038681826902
 30
0.0
  0
VERTEX
  5
B50
  8
DATA
  6
CONTINUOUS
 62
     7
 10
151.77802470929061
 20
425.7433657407949
 30
0.0
  0
SEQEND
  5
B51
  8
DATA
  6
CONTINUOUS
 62
     7
  0
LINE
  5
109
  8
DATA
  6
CONTINUOUS
 62
     7
 10
151.77802470929061
 20
425.7433657407949
 30
0.0
 11
152.081003631817
 21
426.652302508373
 31
0.0
  0
LINE
  5
10A
  8
DATA
  6
CONTINUOUS
 62
     7
 10
158.73915019757229
 20
428.77069172278277
 30
0.0
 11
158.73915019757229
 21
428.77007528550388
 31
0.0
  0
LINE
  5
10B
  8
DATA
  6
CONTINUOUS
 62
     7
 10
158.73915019757229
 20
428.77007528550388
 30
0.0
 11
158.73915019757229
 21
428.77069172278277
 31
0.0
  0
LINE
  5
10C
  8
DATA
  6
CONTINUOUS
 62
     7
 10
158.43617127504589
 20
429.07367064530871
 30
0.0
 11
157.83144505163071
 21
429.3741863245624
 31
0.0
  0
LINE
  5
10D
  8
DATA
  6
CONTINUOUS
 62
     7
 10
151.77802470929061
 20
425.7433657407949
 30
0.0
 11
152.081003631817
 21
426.652302508373
 31
0.0
  0
POLYLINE
  5
10E
  8
DATA
  6
CONTINUOUS
 62
     7
 66
     1
 10
0.0
 20
0.0
 30
0.0
  0
VERTEX
  5
B52
  8
DATA
  6
CONTINUOUS
 62
     7
 10
151.77802470929061
 20
425.7433657407949
 30
0.0
  0
VERTEX
  5
B53
  8
DATA
  6
CONTINUOUS
 62
     7
 10
151.77802470929061
 20
425.44038681826902
 30
0.0
  0
VERTEX
  5
B54
  8
DATA
  6
CONTINUOUS
 62
     7
 10
151.77802470929061
 20
425.1374078957428
 30
0.0
  0
VERTEX
  5
B55
  8
DATA
  6
CONTINUOUS
 62
     7
 10
151.77802470929061
 20
424.8344289732168
 30
0.0
  0
SEQEND
  5
B56
  8
DATA
  6
CONTINUOUS
 62
     7
  0
LINE
  5
115
  8
DATA
  6
CONTINUOUS
 62
     7
 10
151.77802470929061
 20
424.8344289732168
 30
0.0
 11
151.77802470929061
 21
425.1374078957428
 31
0.0
  0
LINE
  5
116
  8
DATA
  6
CONTINUOUS
 62
     7
 10
151.77802470929061
 20
425.1374078957428
 30
0.0
 11
151.77802470929061
 21
425.7433657407949
 31
0.0
  0
POLYLINE
  5
117
  8
DATA
  6
CONTINUOUS
 62
     7
 66
     1
 10
0.0
 20
0.0
 30
0.0
  0
VERTEX
  5
B57
  8
DATA
  6
CONTINUOUS
 62
     7
 10
151.77802470929061
 20
425.7433657407949
 30
0.0
  0
VERTEX
  5
B58
  8
DATA
  6
CONTINUOUS
 62
     7
 10
151.77802470929061
 20
425.44038681826902
 30
0.0
  0
VERTEX
  5
B59
  8
DATA
  6
CONTINUOUS
 62
     7
 10
151.77802470929061
 20
425.1374078957428
 30
0.0
  0
VERTEX
  5
B5A
  8
DATA
  6
CONTINUOUS
 62
     7
 10
151.77802470929061
 20
424.8344289732168
 30
0.0
  0
SEQEND
  5
B5B
  8
DATA
  6
CONTINUOUS
 62
     7
  0
LINE
  5
11E
  8
DATA
  6
CONTINUOUS
 62
     7
 10
129.37975363181729
 20
383.67117064530891
 30
0.0
 11
130.5904377002845
 21
392.75068534799982
 31
0.0
  0
LINE
  5
11F
  8
DATA
  6
CONTINUOUS
 62
     7
 10
129.0767747092909
 20
393.05366427052581
 30
0.0
 11
127.8660906408228
 21
383.67117064530891
 31
0.0
  0
POLYLINE
  5
120
  8
DATA
  6
CONTINUOUS
 62
     7
 66
     1
 10
0.0
 20
0.0
 30
0.0
  0
VERTEX
  5
B5C
  8
DATA
  6
CONTINUOUS
 62
     7
 10
132.10410069127889
 20
398.1993794669234
 30
0.0
  0
VERTEX
  5
B5D
  8
DATA
  6
CONTINUOUS
 62
     7
 10
135.13019505163021
 20
405.76646280025682
 30
0.0
  0
VERTEX
  5
B5E
  8
DATA
  6
CONTINUOUS
 62
     7
 10
139.6711840246119
 20
412.42460936601191
 30
0.0
  0
VERTEX
  5
B5F
  8
DATA
  6
CONTINUOUS
 62
     7
 10
145.42162544442559
 20
418.47926132998771
 30
0.0
  0
VERTEX
  5
B60
  8
DATA
  6
CONTINUOUS
 62
     7
 10
151.77802470929061
 20
423.6249765263853
 30
0.0
  0
SEQEND
  5
B61
  8
DATA
  6
CONTINUOUS
 62
     7
  0
POLYLINE
  5
128
  8
DATA
  6
CONTINUOUS
 62
     7
 66
     1
 10
0.0
 20
0.0
 30
0.0
  0
VERTEX
  5
B62
  8
DATA
  6
CONTINUOUS
 62
     7
 10
151.1720668642393
 20
424.8344289732168
 30
0.0
  0
VERTEX
  5
B63
  8
DATA
  6
CONTINUOUS
 62
     7
 10
144.21094137595759
 20
419.6887137768191
 30
0.0
  0
VERTEX
  5
B64
  8
DATA
  6
CONTINUOUS
 62
     7
 10
138.76224725703429
 20
413.33354613359
 30
0.0
  0
VERTEX
  5
B65
  8
DATA
  6
CONTINUOUS
 62
     7
 10
133.91951098316301
 20
406.37242064530881
 30
0.0
  0
VERTEX
  5
B66
  8
DATA
  6
CONTINUOUS
 62
     7
 10
130.5904377002845
 20
398.50235838944951
 30
0.0
  0
SEQEND
  5
B67
  8
DATA
  6
CONTINUOUS
 62
     7
  0
LINE
  5
130
  8
DATA
  6
CONTINUOUS
 62
     7
 10
151.77802470929061
 20
423.6249765263853
 30
0.0
 11
152.38275093270661
 21
423.92795544891129
 31
0.0
  0
POLYLINE
  5
131
  8
DATA
  6
CONTINUOUS
 62
     7
 66
     1
 10
0.0
 20
0.0
 30
0.0
  0
VERTEX
  5
B68
  8
DATA
  6
CONTINUOUS
 62
     7
 10
198.0882298552331
 20
435.12585936601192
 30
0.0
  0
VERTEX
  5
B69
  8
DATA
  6
CONTINUOUS
 62
     7
 10
206.86599725703411
 20
433.91640691918047
 30
0.0
  0
VERTEX
  5
B6A
  8
DATA
  6
CONTINUOUS
 62
     7
 10
215.64376465883521
 20
431.49503878224471
 30
0.0
  0
VERTEX
  5
B6B
  8
DATA
  6
CONTINUOUS
 62
     7
 10
224.11855313811051
 20
427.86175495520467
 30
0.0
  0
SEQEND
  5
B6C
  8
DATA
  6
CONTINUOUS
 62
     7
  0
POLYLINE
  5
138
  8
DATA
  6
CONTINUOUS
 62
     7
 66
     1
 10
0.0
 20
0.0
 30
0.0
  0
VERTEX
  5
B6D
  8
DATA
  6
CONTINUOUS
 62
     7
 10
224.7245109831625
 20
429.07367064530871
 30
0.0
  0
VERTEX
  5
B6E
  8
DATA
  6
CONTINUOUS
 62
     7
 10
216.2497225038872
 20
432.70449122907632
 30
0.0
  0
VERTEX
  5
B6F
  8
DATA
  6
CONTINUOUS
 62
     7
 10
207.16897617955971
 20
435.12585936601192
 30
0.0
  0
VERTEX
  5
B70
  8
DATA
  6
CONTINUOUS
 62
     7
 10
198.0882298552331
 20
436.64075397864229
 30
0.0
  0
SEQEND
  5
B71
  8
DATA
  6
CONTINUOUS
 62
     7
  0
LINE
  5
13F
  8
DATA
  6
CONTINUOUS
 62
     7
 10
151.77802470929061
 20
425.44038681826902
 30
0.0
 11
151.1720668642393
 21
424.8344289732168
 31
0.0
  0
POLYLINE
  5
140
  8
DATA
  6
CONTINUOUS
 62
     7
 66
     1
 10
0.0
 20
0.0
 30
0.0
 70
   128
  0
VERTEX
  5
B72
  8
DATA
  6
CONTINUOUS
 62
     7
 10
126.9583854948812
 20
380.03788681826899
 30
0.0
  0
VERTEX
  5
B73
  8
DATA
  6
CONTINUOUS
 62
     7
 10
126.9583854948812
 20
379.73490789574299
 30
0.0
  0
VERTEX
  5
B74
  8
DATA
  6
CONTINUOUS
 62
     7
 10
126.9583854948812
 20
379.43192897321683
 30
0.0
  0
SEQEND
  5
B75
  8
DATA
  6
CONTINUOUS
 62
     7
  0
POLYLINE
  5
145
  8
DATA
  6
CONTINUOUS
 62
     7
 66
     1
 10
0.0
 20
0.0
 30
0.0
 70
   128
  0
VERTEX
  5
B76
  8
DATA
  6
CONTINUOUS
 62
     7
 10
130.2874587777589
 20
381.5503181876266
 30
0.0
  0
VERTEX
  5
B77
  8
DATA
  6
CONTINUOUS
 62
     7
 10
130.2874587777589
 20
381.8532971101526
 30
0.0
  0
VERTEX
  5
B78
  8
DATA
  6
CONTINUOUS
 62
     7
 10
130.2874587777589
 20
382.1562760326787
 30
0.0
  0
SEQEND
  5
B79
  8
DATA
  6
CONTINUOUS
 62
     7
  0
LINE
  5
14A
  8
DATA
  6
CONTINUOUS
 62
     7
 10
135.13019505163021
 20
349.76955348493561
 30
0.0
 11
134.94811162750651
 21
349.04270014148148
 31
0.0
  0
POLYLINE
  5
14B
  8
DATA
  6
CONTINUOUS
 62
     7
 66
     1
 10
0.0
 20
0.0
 30
0.0
 70
   128
  0
VERTEX
  5
B7A
  8
DATA
  6
CONTINUOUS
 62
     7
 10
126.9583854948812
 20
382.1562760326787
 30
0.0
  0
VERTEX
  5
B7B
  8
DATA
  6
CONTINUOUS
 62
     7
 10
126.9583854948812
 20
382.45925495520493
 30
0.0
  0
VERTEX
  5
B7C
  8
DATA
  6
CONTINUOUS
 62
     7
 10
126.9583854948812
 20
382.76223387773081
 30
0.0
  0
SEQEND
  5
B7D
  8
DATA
  6
CONTINUOUS
 62
     7
  0
LINE
  5
150
  8
DATA
  6
CONTINUOUS
 62
     7
 10
131.80112176875249
 20
351.28198485429323
 30
0.0
 11
131.80112176875249
 21
350.98146917503959
 31
0.0
  0
LINE
  5
151
  8
DATA
  6
CONTINUOUS
 62
     7
 10
131.80112176875249
 20
351.28198485429323
 30
0.0
 11
131.19516392370051
 21
352.49390054439732
 31
0.0
  0
LINE
  5
152
  8
DATA
  6
CONTINUOUS
 62
     7
 10
126.9583854948812
 20
380.03788681826899
 30
0.0
 11
126.9583854948812
 21
379.43192897321683
 31
0.0
  0
POLYLINE
  5
153
  8
DATA
  6
CONTINUOUS
 62
     7
 66
     1
 10
0.0
 20
0.0
 30
0.0
  0
VERTEX
  5
B7E
  8
DATA
  6
CONTINUOUS
 62
     7
 10
130.2874587777589
 20
377.31353975880722
 30
0.0
  0
VERTEX
  5
B7F
  8
DATA
  6
CONTINUOUS
 62
     7
 10
130.2874587777589
 20
377.91949760385933
 30
0.0
  0
VERTEX
  5
B80
  8
DATA
  6
CONTINUOUS
 62
     7
 10
130.2874587777589
 20
378.22247652638521
 30
0.0
  0
SEQEND
  5
B81
  8
DATA
  6
CONTINUOUS
 62
     7
  0
LINE
  5
159
  8
DATA
  6
CONTINUOUS
 62
     7
 10
127.8660906408228
 20
370.65539319305191
 30
0.0
 11
128.16783794171241
 21
369.14049858042159
 31
0.0
  0
POLYLINE
  5
15A
  8
DATA
  6
CONTINUOUS
 62
     7
 66
     1
 10
0.0
 20
0.0
 30
0.0
 70
   128
  0
VERTEX
  5
B82
  8
DATA
  6
CONTINUOUS
 62
     7
 10
130.2874587777589
 20
377.61651868133322
 30
0.0
  0
VERTEX
  5
B83
  8
DATA
  6
CONTINUOUS
 62
     7
 10
130.2874587777589
 20
381.24980250837308
 30
0.0
  0
VERTEX
  5
B84
  8
DATA
  6
CONTINUOUS
 62
     7
 10
130.2874587777589
 20
381.5503181876266
 30
0.0
  0
SEQEND
  5
B85
  8
DATA
  6
CONTINUOUS
 62
     7
  0
POLYLINE
  5
15F
  8
DATA
  6
CONTINUOUS
 62
     7
 66
     1
 10
0.0
 20
0.0
 30
0.0
  0
VERTEX
  5
B86
  8
DATA
  6
CONTINUOUS
 62
     7
 10
130.86662646219179
 20
373.45189796599283
 30
0.0
  0
VERTEX
  5
B87
  8
DATA
  6
CONTINUOUS
 62
     7
 10
130.2874587777589
 20
377.31353975880722
 30
0.0
  0
VERTEX
  5
B88
  8
DATA
  6
CONTINUOUS
 62
     7
 10
130.2874587777589
 20
377.61651868133322
 30
0.0
  0
SEQEND
  5
B89
  8
DATA
  6
CONTINUOUS
 62
     7
  0
LINE
  5
165
  8
DATA
  6
CONTINUOUS
 62
     7
 10
130.2874587777589
 20
381.8532971101526
 30
0.0
 11
130.2874587777589
 21
382.1562760326787
 31
0.0
  0
POLYLINE
  5
166
  8
DATA
  6
CONTINUOUS
 62
     7
 66
     1
 10
0.0
 20
0.0
 30
0.0
 70
   128
  0
VERTEX
  5
B8A
  8
DATA
  6
CONTINUOUS
 62
     7
 10
130.2874587777589
 20
380.03788681826899
 30
0.0
  0
VERTEX
  5
B8B
  8
DATA
  6
CONTINUOUS
 62
     7
 10
130.2874587777589
 20
381.5503181876266
 30
0.0
  0
VERTEX
  5
B8C
  8
DATA
  6
CONTINUOUS
 62
     7
 10
130.2874587777589
 20
381.8532971101526
 30
0.0
  0
SEQEND
  5
B8D
  8
DATA
  6
CONTINUOUS
 62
     7
  0
LINE
  5
16B
  8
DATA
  6
CONTINUOUS
 62
     7
 10
126.9583854948812
 20
379.43192897321683
 30
0.0
 11
127.1728354945466
 21
375.34599999999978
 31
0.0
  0
POLYLINE
  5
16C
  8
DATA
  6
CONTINUOUS
 62
     7
 66
     1
 10
0.0
 20
0.0
 30
0.0
 70
   128
  0
VERTEX
  5
B8E
  8
DATA
  6
CONTINUOUS
 62
     7
 10
126.9583854948812
 20
382.45925495520493
 30
0.0
  0
VERTEX
  5
B8F
  8
DATA
  6
CONTINUOUS
 62
     7
 10
126.9583854948812
 20
380.03788681826899
 30
0.0
  0
VERTEX
  5
B90
  8
DATA
  6
CONTINUOUS
 62
     7
 10
126.9583854948812
 20
379.73490789574299
 30
0.0
  0
SEQEND
  5
B91
  8
DATA
  6
CONTINUOUS
 62
     7
  0
LINE
  5
171
  8
DATA
  6
CONTINUOUS
 62
     7
 10
129.37975363181729
 20
362.4823520146665
 30
0.0
 11
130.5904377002845
 21
354.91526868133309
 31
0.0
  0
LINE
  5
172
  8
DATA
  6
CONTINUOUS
 62
     7
 10
128.16783794171241
 20
369.14049858042159
 30
0.0
 11
129.0767747092909
 21
363.69426770477082
 31
0.0
  0
LINE
  5
173
  8
DATA
  6
CONTINUOUS
 62
     7
 10
130.5904377002845
 20
354.91526868133309
 30
0.0
 11
130.6913621581952
 21
354.61228975880721
 31
0.0
  0
LINE
  5
174
  8
DATA
  6
CONTINUOUS
 62
     7
 10
130.89285219045919
 20
354.00740929535073
 30
0.0
 11
131.19516392370051
 21
353.09985838944948
 31
0.0
  0
POLYLINE
  5
175
  8
DATA
  6
CONTINUOUS
 62
     7
 66
     1
 10
0.0
 20
0.0
 30
0.0
 70
   128
  0
VERTEX
  5
B92
  8
DATA
  6
CONTINUOUS
 62
     7
 10
135.13019505163021
 20
349.76955348493561
 30
0.0
  0
VERTEX
  5
B93
  8
DATA
  6
CONTINUOUS
 62
     7
 10
133.91951098316301
 20
355.52122652638542
 30
0.0
  0
VERTEX
  5
B94
  8
DATA
  6
CONTINUOUS
 62
     7
 10
133.91951098316301
 20
355.82420544891141
 30
0.0
  0
SEQEND
  5
B95
  8
DATA
  6
CONTINUOUS
 62
     7
  0
POLYLINE
  5
17A
  8
DATA
  6
CONTINUOUS
 62
     7
 66
     1
 10
0.0
 20
0.0
 30
0.0
  0
VERTEX
  5
B96
  8
DATA
  6
CONTINUOUS
 62
     7
 10
135.4331739741566
 20
347.65116427052601
 30
0.0
  0
VERTEX
  5
B97
  8
DATA
  6
CONTINUOUS
 62
     7
 10
135.13019505163021
 20
348.86061671735757
 30
0.0
  0
VERTEX
  5
B98
  8
DATA
  6
CONTINUOUS
 62
     7
 10
134.94811162750651
 20
349.04270014148148
 30
0.0
  0
SEQEND
  5
B99
  8
DATA
  6
CONTINUOUS
 62
     7
  0
POLYLINE
  5
180
  8
DATA
  6
CONTINUOUS
 62
     7
 66
     1
 10
0.0
 20
0.0
 30
0.0
  0
VERTEX
  5
B9A
  8
DATA
  6
CONTINUOUS
 62
     7
 10
132.10410069127889
 20
347.04520642547379
 30
0.0
  0
VERTEX
  5
B9B
  8
DATA
  6
CONTINUOUS
 62
     7
 10
133.31355313811011
 20
345.83575397864217
 30
0.0
  0
VERTEX
  5
B9C
  8
DATA
  6
CONTINUOUS
 62
     7
 10
134.8272161291045
 20
345.83575397864217
 30
0.0
  0
VERTEX
  5
B9D
  8
DATA
  6
CONTINUOUS
 62
     7
 10
135.4331739741566
 20
347.34818534800002
 30
0.0
  0
SEQEND
  5
B9E
  8
DATA
  6
CONTINUOUS
 62
     7
  0
LINE
  5
187
  8
DATA
  6
CONTINUOUS
 62
     7
 10
135.4331739741566
 20
347.34818534800002
 30
0.0
 11
135.4331739741566
 21
347.65116427052601
 31
0.0
  0
POLYLINE
  5
188
  8
DATA
  6
CONTINUOUS
 62
     7
 66
     1
 10
0.0
 20
0.0
 30
0.0
  0
VERTEX
  5
B9F
  8
DATA
  6
CONTINUOUS
 62
     7
 10
224.42153206063611
 20
426.652302508373
 30
0.0
  0
VERTEX
  5
BA0
  8
DATA
  6
CONTINUOUS
 62
     7
 10
224.11855313811051
 20
427.86175495520467
 30
0.0
  0
VERTEX
  5
BA1
  8
DATA
  6
CONTINUOUS
 62
     7
 10
224.7245109831625
 20
429.07367064530871
 30
0.0
  0
VERTEX
  5
BA2
  8
DATA
  6
CONTINUOUS
 62
     7
 10
225.93519505163059
 20
429.3741863245624
 30
0.0
  0
SEQEND
  5
BA3
  8
DATA
  6
CONTINUOUS
 62
     7
  0
POLYLINE
  5
18F
  8
DATA
  6
CONTINUOUS
 62
     7
 66
     1
 10
0.0
 20
0.0
 30
0.0
  0
VERTEX
  5
BA4
  8
DATA
  6
CONTINUOUS
 62
     7
 10
231.08091024802829
 20
426.652302508373
 30
0.0
  0
VERTEX
  5
BA5
  8
DATA
  6
CONTINUOUS
 62
     7
 10
231.6856364714443
 20
425.1374078957428
 30
0.0
  0
VERTEX
  5
BA6
  8
DATA
  6
CONTINUOUS
 62
     7
 10
230.7779313255019
 20
423.92795544891129
 30
0.0
  0
VERTEX
  5
BA7
  8
DATA
  6
CONTINUOUS
 62
     7
 10
229.56724725703381
 20
423.6249765263853
 30
0.0
  0
SEQEND
  5
BA8
  8
DATA
  6
CONTINUOUS
 62
     7
  0
LINE
  5
196
  8
DATA
  6
CONTINUOUS
 62
     7
 10
225.93519505163059
 20
429.3741863245624
 30
0.0
 11
227.14587912009861
 21
429.07367064530871
 31
0.0
  0
LINE
  5
197
  8
DATA
  6
CONTINUOUS
 62
     7
 10
227.14587912009861
 20
429.07367064530871
 30
0.0
 11
231.08091024802829
 21
426.652302508373
 31
0.0
  0
POLYLINE
  5
198
  8
DATA
  6
CONTINUOUS
 62
     7
 66
     1
 10
0.0
 20
0.0
 30
0.0
 70
   128
  0
VERTEX
  5
BA9
  8
DATA
  6
CONTINUOUS
 62
     7
 10
229.56724725703381
 20
423.6249765263853
 30
0.0
  0
VERTEX
  5
BAA
  8
DATA
  6
CONTINUOUS
 62
     7
 10
225.33046882821449
 20
425.7433657407949
 30
0.0
  0
VERTEX
  5
BAB
  8
DATA
  6
CONTINUOUS
 62
     7
 10
225.0274899056889
 20
426.04634466332101
 30
0.0
  0
SEQEND
  5
BAC
  8
DATA
  6
CONTINUOUS
 62
     7
  0
POLYLINE
  5
19D
  8
DATA
  6
CONTINUOUS
 62
     7
 66
     1
 10
0.0
 20
0.0
 30
0.0
  0
VERTEX
  5
BAD
  8
DATA
  6
CONTINUOUS
 62
     7
 10
251.6637710336183
 20
369.74645642547381
 30
0.0
  0
VERTEX
  5
BAE
  8
DATA
  6
CONTINUOUS
 62
     7
 10
251.6637710336183
 20
369.4434775029477
 30
0.0
  0
VERTEX
  5
BAF
  8
DATA
  6
CONTINUOUS
 62
     7
 10
251.6637710336183
 20
369.14049858042159
 30
0.0
  0
SEQEND
  5
BB0
  8
DATA
  6
CONTINUOUS
 62
     7
  0
LINE
  5
1A3
  8
DATA
  6
CONTINUOUS
 62
     7
 10
251.6637710336183
 20
369.4434775029477
 30
0.0
 11
251.6637710336183
 21
369.14049858042159
 31
0.0
  0
POLYLINE
  5
1A4
  8
DATA
  6
CONTINUOUS
 62
     7
 66
     1
 10
0.0
 20
0.0
 30
0.0
  0
VERTEX
  5
BB1
  8
DATA
  6
CONTINUOUS
 62
     7
 10
129.68150093270691
 20
354.00633191375522
 30
0.0
  0
VERTEX
  5
BB2
  8
DATA
  6
CONTINUOUS
 62
     7
 10
130.2874587777589
 20
354.00633191375522
 30
0.0
  0
VERTEX
  5
BB3
  8
DATA
  6
CONTINUOUS
 62
     7
 10
130.5904377002845
 20
354.3093108362811
 30
0.0
  0
VERTEX
  5
BB4
  8
DATA
  6
CONTINUOUS
 62
     7
 10
131.19516392370051
 20
354.3093108362811
 30
0.0
  0
SEQEND
  5
BB5
  8
DATA
  6
CONTINUOUS
 62
     7
  0
POLYLINE
  5
1AB
  8
DATA
  6
CONTINUOUS
 62
     7
 66
     1
 10
0.0
 20
0.0
 30
0.0
  0
VERTEX
  5
BB6
  8
DATA
  6
CONTINUOUS
 62
     7
 10
133.91951098316301
 20
356.96029935372047
 30
0.0
  0
VERTEX
  5
BB7
  8
DATA
  6
CONTINUOUS
 62
     7
 10
133.91951098316301
 20
355.94549840257292
 30
0.0
  0
VERTEX
  5
BB8
  8
DATA
  6
CONTINUOUS
 62
     7
 10
133.91951098316301
 20
355.52122652638542
 30
0.0
  0
SEQEND
  5
BB9
  8
DATA
  6
CONTINUOUS
 62
     7
  0
LINE
  5
1B1
  8
DATA
  6
CONTINUOUS
 62
     7
 10
130.6913621581952
 20
354.61228975880721
 30
0.0
 11
130.89218500117491
 21
354.61228975880721
 31
0.0
  0
LINE
  5
1B2
  8
DATA
  6
CONTINUOUS
 62
     7
 10
130.89218500117491
 20
354.3093108362811
 30
0.0
 11
130.89218500117491
 21
354.61228975880721
 31
0.0
  0
LINE
  5
1B3
  8
DATA
  6
CONTINUOUS
 62
     7
 10
130.5904377002845
 20
354.3093108362811
 30
0.0
 11
130.89218500117491
 21
354.3093108362811
 31
0.0
  0
POLYLINE
  5
1B4
  8
DATA
  6
CONTINUOUS
 62
     7
 66
     1
 10
0.0
 20
0.0
 30
0.0
  0
VERTEX
  5
BBA
  8
DATA
  6
CONTINUOUS
 62
     7
 10
133.91951098316301
 20
356.9602993537203
 30
0.0
  0
VERTEX
  5
BBB
  8
DATA
  6
CONTINUOUS
 62
     7
 10
133.01180583722061
 20
363.99478338402429
 30
0.0
  0
VERTEX
  5
BBC
  8
DATA
  6
CONTINUOUS
 62
     7
 10
130.89218500117491
 20
373.37974025251373
 30
0.0
  0
SEQEND
  5
BBD
  8
DATA
  6
CONTINUOUS
 62
     7
  0
LINE
  5
1BA
  8
DATA
  6
CONTINUOUS
 62
     7
 10
123.02335436695159
 20
368.8399829011683
 30
0.0
 11
125.74646980477721
 21
354.00633191375522
 31
0.0
  0
POLYLINE
  5
1BB
  8
DATA
  6
CONTINUOUS
 62
     7
 66
     1
 10
0.0
 20
0.0
 30
0.0
 70
   128
  0
VERTEX
  5
BBE
  8
DATA
  6
CONTINUOUS
 62
     7
 10
253.17743402461201
 20
381.5503181876266
 30
0.0
  0
VERTEX
  5
BBF
  8
DATA
  6
CONTINUOUS
 62
     7
 10
253.17743402461201
 20
381.8532971101526
 30
0.0
  0
VERTEX
  5
BC0
  8
DATA
  6
CONTINUOUS
 62
     7
 10
253.17743402461201
 20
382.1562760326787
 30
0.0
  0
SEQEND
  5
BC1
  8
DATA
  6
CONTINUOUS
 62
     7
  0
LINE
  5
1C0
  8
DATA
  6
CONTINUOUS
 62
     7
 10
251.6637710336183
 20
369.4434775029477
 30
0.0
 11
251.6637710336183
 21
369.14049858042159
 31
0.0
  0
POLYLINE
  5
1C1
  8
DATA
  6
CONTINUOUS
 62
     7
 66
     1
 10
0.0
 20
0.0
 30
0.0
 70
   128
  0
VERTEX
  5
BC2
  8
DATA
  6
CONTINUOUS
 62
     7
 10
252.26849725703431
 20
371.26135103810412
 30
0.0
  0
VERTEX
  5
BC3
  8
DATA
  6
CONTINUOUS
 62
     7
 10
251.96551833450789
 20
370.04943534799997
 30
0.0
  0
VERTEX
  5
BC4
  8
DATA
  6
CONTINUOUS
 62
     7
 10
251.6637710336183
 20
369.74645642547381
 30
0.0
  0
SEQEND
  5
BC5
  8
DATA
  6
CONTINUOUS
 62
     7
  0
POLYLINE
  5
1C6
  8
DATA
  6
CONTINUOUS
 62
     7
 66
     1
 10
0.0
 20
0.0
 30
0.0
 70
   128
  0
VERTEX
  5
BC6
  8
DATA
  6
CONTINUOUS
 62
     7
 10
255.9005494624376
 20
373.68271917503972
 30
0.0
  0
VERTEX
  5
BC7
  8
DATA
  6
CONTINUOUS
 62
     7
 10
256.50650730748958
 20
379.43192897321683
 30
0.0
  0
VERTEX
  5
BC8
  8
DATA
  6
CONTINUOUS
 62
     7
 10
256.50650730748958
 20
379.73490789574299
 30
0.0
  0
SEQEND
  5
BC9
  8
DATA
  6
CONTINUOUS
 62
     7
  0
POLYLINE
  5
1CB
  8
DATA
  6
CONTINUOUS
 62
     7
 66
     1
 10
0.0
 20
0.0
 30
0.0
 70
   128
  0
VERTEX
  5
BCA
  8
DATA
  6
CONTINUOUS
 62
     7
 10
255.59880216154801
 20
370.65539319305191
 30
0.0
  0
VERTEX
  5
BCB
  8
DATA
  6
CONTINUOUS
 62
     7
 10
255.9005494624376
 20
372.77378240746179
 30
0.0
  0
VERTEX
  5
BCC
  8
DATA
  6
CONTINUOUS
 62
     7
 10
255.9005494624376
 20
373.07676132998768
 30
0.0
  0
SEQEND
  5
BCD
  8
DATA
  6
CONTINUOUS
 62
     7
  0
LINE
  5
1D0
  8
DATA
  6
CONTINUOUS
 62
     7
 10
253.17743402461201
 20
381.5503181876266
 30
0.0
 11
253.17743402461201
 21
381.24980250837308
 31
0.0
  0
LINE
  5
1D1
  8
DATA
  6
CONTINUOUS
 62
     7
 10
253.17743402461201
 20
381.8532971101526
 30
0.0
 11
253.17743402461201
 21
382.1562760326787
 31
0.0
  0
LINE
  5
1D2
  8
DATA
  6
CONTINUOUS
 62
     7
 10
252.87445510208639
 20
377.31353975880722
 30
0.0
 11
252.26849725703431
 21
371.26135103810412
 31
0.0
  0
POLYLINE
  5
1D3
  8
DATA
  6
CONTINUOUS
 62
     7
 66
     1
 10
0.0
 20
0.0
 30
0.0
 70
   128
  0
VERTEX
  5
BCE
  8
DATA
  6
CONTINUOUS
 62
     7
 10
253.17743402461201
 20
381.24980250837308
 30
0.0
  0
VERTEX
  5
BCF
  8
DATA
  6
CONTINUOUS
 62
     7
 10
252.87445510208639
 20
377.61651868133322
 30
0.0
  0
VERTEX
  5
BD0
  8
DATA
  6
CONTINUOUS
 62
     7
 10
252.87445510208639
 20
377.31353975880722
 30
0.0
  0
SEQEND
  5
BD1
  8
DATA
  6
CONTINUOUS
 62
     7
  0
POLYLINE
  5
1D8
  8
DATA
  6
CONTINUOUS
 62
     7
 66
     1
 10
0.0
 20
0.0
 30
0.0
 70
   128
  0
VERTEX
  5
BD2
  8
DATA
  6
CONTINUOUS
 62
     7
 10
253.17743402461201
 20
381.8532971101526
 30
0.0
  0
VERTEX
  5
BD3
  8
DATA
  6
CONTINUOUS
 62
     7
 10
253.17743402461201
 20
381.5503181876266
 30
0.0
  0
VERTEX
  5
BD4
  8
DATA
  6
CONTINUOUS
 62
     7
 10
253.17743402461201
 20
381.24980250837308
 30
0.0
  0
SEQEND
  5
BD5
  8
DATA
  6
CONTINUOUS
 62
     7
  0
LINE
  5
1DD
  8
DATA
  6
CONTINUOUS
 62
     7
 10
252.57147617955991
 20
354.91526868133309
 30
0.0
 11
254.08513917055441
 21
362.4823520146665
 31
0.0
  0
POLYLINE
  5
1DE
  8
DATA
  6
CONTINUOUS
 62
     7
 66
     1
 10
0.0
 20
0.0
 30
0.0
  0
VERTEX
  5
BD6
  8
DATA
  6
CONTINUOUS
 62
     7
 10
251.6637710336183
 20
369.14049858042159
 30
0.0
  0
VERTEX
  5
BD7
  8
DATA
  6
CONTINUOUS
 62
     7
 10
249.54415019757181
 20
357.94259466332107
 30
0.0
  0
VERTEX
  5
BD8
  8
DATA
  6
CONTINUOUS
 62
     7
 10
249.54415019757181
 20
357.9362826308261
 30
0.0
  0
SEQEND
  5
BD9
  8
DATA
  6
CONTINUOUS
 62
     7
  0
LINE
  5
1E4
  8
DATA
  6
CONTINUOUS
 62
     7
 10
248.03171882821431
 20
348.86061671735757
 30
0.0
 11
247.7287399056886
 21
347.65116427052601
 31
0.0
  0
POLYLINE
  5
1E5
  8
DATA
  6
CONTINUOUS
 62
     7
 66
     1
 10
0.0
 20
0.0
 30
0.0
 70
   128
  0
VERTEX
  5
BDA
  8
DATA
  6
CONTINUOUS
 62
     7
 10
249.24117127504621
 20
355.52122652638542
 30
0.0
  0
VERTEX
  5
BDB
  8
DATA
  6
CONTINUOUS
 62
     7
 10
248.03171882821431
 20
349.76955348493561
 30
0.0
  0
VERTEX
  5
BDC
  8
DATA
  6
CONTINUOUS
 62
     7
 10
248.03171882821431
 20
349.46657456240962
 30
0.0
  0
SEQEND
  5
BDD
  8
DATA
  6
CONTINUOUS
 62
     7
  0
LINE
  5
1EA
  8
DATA
  6
CONTINUOUS
 62
     7
 10
252.26849725703431
 20
353.09985838944948
 30
0.0
 11
252.57147617955991
 21
354.91526868133309
 31
0.0
  0
POLYLINE
  5
1EB
  8
DATA
  6
CONTINUOUS
 62
     7
 66
     1
 10
0.0
 20
0.0
 30
0.0
 70
   128
  0
VERTEX
  5
BDE
  8
DATA
  6
CONTINUOUS
 62
     7
 10
251.05781318856631
 20
347.04520642547379
 30
0.0
  0
VERTEX
  5
BDF
  8
DATA
  6
CONTINUOUS
 62
     7
 10
251.96551833450789
 20
352.19092162187133
 30
0.0
  0
VERTEX
  5
BE0
  8
DATA
  6
CONTINUOUS
 62
     7
 10
251.96551833450789
 20
352.49390054439732
 30
0.0
  0
SEQEND
  5
BE1
  8
DATA
  6
CONTINUOUS
 62
     7
  0
LINE
  5
1F0
  8
DATA
  6
CONTINUOUS
 62
     7
 10
247.7287399056886
 20
347.65116427052601
 30
0.0
 11
247.7287399056886
 21
347.34818534800002
 31
0.0
  0
POLYLINE
  5
1F1
  8
DATA
  6
CONTINUOUS
 62
     7
 66
     1
 10
0.0
 20
0.0
 30
0.0
  0
VERTEX
  5
BE2
  8
DATA
  6
CONTINUOUS
 62
     7
 10
247.7287399056886
 20
347.34818534800002
 30
0.0
  0
VERTEX
  5
BE3
  8
DATA
  6
CONTINUOUS
 62
     7
 10
248.33346612910461
 20
345.83575397864217
 30
0.0
  0
VERTEX
  5
BE4
  8
DATA
  6
CONTINUOUS
 62
     7
 10
250.15010804262459
 20
345.83575397864217
 30
0.0
  0
VERTEX
  5
BE5
  8
DATA
  6
CONTINUOUS
 62
     7
 10
251.05781318856631
 20
347.04520642547379
 30
0.0
  0
SEQEND
  5
BE6
  8
DATA
  6
CONTINUOUS
 62
     7
  0
LINE
  5
1F8
  8
DATA
  6
CONTINUOUS
 62
     7
 10
230.7779313255019
 20
423.92795544891129
 30
0.0
 11
231.38388917055391
 21
423.6249765263853
 31
0.0
  0
LINE
  5
1F9
  8
DATA
  6
CONTINUOUS
 62
     7
 10
232.29159431649541
 20
424.8344289732168
 30
0.0
 11
231.6856364714443
 21
425.1374078957428
 31
0.0
  0
POLYLINE
  5
1FA
  8
DATA
  6
CONTINUOUS
 62
     7
 66
     1
 10
0.0
 20
0.0
 30
0.0
  0
VERTEX
  5
BE7
  8
DATA
  6
CONTINUOUS
 62
     7
 10
231.38388917055391
 20
423.6249765263853
 30
0.0
  0
VERTEX
  5
BE8
  8
DATA
  6
CONTINUOUS
 62
     7
 10
237.1343305903676
 20
419.38573485429322
 30
0.0
  0
VERTEX
  5
BE9
  8
DATA
  6
CONTINUOUS
 62
     7
 10
242.2800457867653
 20
414.24248290116822
 30
0.0
  0
VERTEX
  5
BEA
  8
DATA
  6
CONTINUOUS
 62
     7
 10
246.5180558372206
 20
408.18783093719247
 30
0.0
  0
VERTEX
  5
BEB
  8
DATA
  6
CONTINUOUS
 62
     7
 10
249.84712912009829
 20
401.83020005069079
 30
0.0
  0
VERTEX
  5
BEC
  8
DATA
  6
CONTINUOUS
 62
     7
 10
252.26849725703431
 20
395.1720534849357
 30
0.0
  0
SEQEND
  5
BED
  8
DATA
  6
CONTINUOUS
 62
     7
  0
POLYLINE
  5
203
  8
DATA
  6
CONTINUOUS
 62
     7
 66
     1
 10
0.0
 20
0.0
 30
0.0
  0
VERTEX
  5
BEE
  8
DATA
  6
CONTINUOUS
 62
     7
 10
253.47918132550149
 20
395.4750324074617
 30
0.0
  0
VERTEX
  5
BEF
  8
DATA
  6
CONTINUOUS
 62
     7
 10
251.05781318856631
 20
402.43615789574289
 30
0.0
  0
VERTEX
  5
BF0
  8
DATA
  6
CONTINUOUS
 62
     7
 10
247.7287399056886
 20
409.09676770477068
 30
0.0
  0
VERTEX
  5
BF1
  8
DATA
  6
CONTINUOUS
 62
     7
 10
243.1877509327069
 20
415.14895642547373
 30
0.0
  0
VERTEX
  5
BF2
  8
DATA
  6
CONTINUOUS
 62
     7
 10
238.04326735794601
 20
420.29467162187132
 30
0.0
  0
VERTEX
  5
BF3
  8
DATA
  6
CONTINUOUS
 62
     7
 10
232.29159431649541
 20
424.8344289732168
 30
0.0
  0
SEQEND
  5
BF4
  8
DATA
  6
CONTINUOUS
 62
     7
  0
LINE
  5
20C
  8
DATA
  6
CONTINUOUS
 62
     7
 10
252.26849725703431
 20
395.1720534849357
 30
0.0
 11
252.87445510208639
 21
392.75068534799982
 31
0.0
  0
LINE
  5
20D
  8
DATA
  6
CONTINUOUS
 62
     7
 10
254.08513917055441
 20
393.05366427052581
 30
0.0
 11
253.47918132550149
 21
395.4750324074617
 31
0.0
  0
LINE
  5
20E
  8
DATA
  6
CONTINUOUS
 62
     7
 10
252.87445510208639
 20
392.75068534799982
 30
0.0
 11
254.08513917055441
 21
383.67117064530891
 31
0.0
  0
LINE
  5
20F
  8
DATA
  6
CONTINUOUS
 62
     7
 10
255.29582323902241
 20
383.67117064530891
 30
0.0
 11
254.08513917055441
 21
393.05366427052581
 31
0.0
  0
POLYLINE
  5
210
  8
DATA
  6
CONTINUOUS
 62
     7
 66
     1
 10
0.0
 20
0.0
 30
0.0
  0
VERTEX
  5
BF5
  8
DATA
  6
CONTINUOUS
 62
     7
 10
157.76652412666161
 20
270.56545790086273
 30
0.0
  0
VERTEX
  5
BF6
  8
DATA
  6
CONTINUOUS
 62
     7
 10
156.83610303043321
 20
269.5819654467403
 30
0.0
  0
VERTEX
  5
BF7
  8
DATA
  6
CONTINUOUS
 62
     7
 10
155.05156076095099
 20
268.28759830909712
 30
0.0
  0
VERTEX
  5
BF8
  8
DATA
  6
CONTINUOUS
 62
     7
 10
152.98262630066299
 20
266.89234220788171
 30
0.0
  0
VERTEX
  5
BF9
  8
DATA
  6
CONTINUOUS
 62
     7
 10
150.81090942468501
 20
265.77947847289118
 30
0.0
  0
VERTEX
  5
BFA
  8
DATA
  6
CONTINUOUS
 62
     7
 10
149.00135687519659
 20
265.44327864241768
 30
0.0
  0
VERTEX
  5
BFB
  8
DATA
  6
CONTINUOUS
 62
     7
 10
148.04445328625221
 20
265.4147963251217
 30
0.0
  0
VERTEX
  5
BFC
  8
DATA
  6
CONTINUOUS
 62
     7
 10
147.83720349723819
 20
265.98421044062439
 30
0.0
  0
VERTEX
  5
BFD
  8
DATA
  6
CONTINUOUS
 62
     7
 10
148.66129211899991
 20
266.85459563105582
 30
0.0
  0
SEQEND
  5
BFE
  8
DATA
  6
CONTINUOUS
 62
     7
  0
POLYLINE
  5
21C
  8
DATA
  6
CONTINUOUS
 62
     7
 66
     1
 10
0.0
 20
0.0
 30
0.0
  0
VERTEX
  5
BFF
  8
DATA
  6
CONTINUOUS
 62
     7
 10
156.37341317055319
 20
271.31205030613739
 30
0.0
  0
VERTEX
  5
C00
  8
DATA
  6
CONTINUOUS
 62
     7
 10
157.7411989797086
 20
271.5208892770973
 30
0.0
  0
VERTEX
  5
C01
  8
DATA
  6
CONTINUOUS
 62
     7
 10
157.94760628990551
 20
270.9537898531209
 30
0.0
  0
VERTEX
  5
C02
  8
DATA
  6
CONTINUOUS
 62
     7
 10
158.05123118441259
 20
270.6690827953696
 30
0.0
  0
SEQEND
  5
C03
  8
DATA
  6
CONTINUOUS
 62
     7
  0
LINE
  5
223
  8
DATA
  6
CONTINUOUS
 62
     7
 10
156.62885324141911
 20
270.15137956224322
 30
0.0
 11
156.4477710781743
 21
269.76304760998471
 31
0.0
  0
LINE
  5
224
  8
DATA
  6
CONTINUOUS
 62
     7
 10
158.05123118441259
 20
270.6690827953696
 30
0.0
 11
157.94760628990551
 21
270.9537898531209
 31
0.0
  0
POLYLINE
  5
225
  8
DATA
  6
CONTINUOUS
 62
     7
 66
     1
 10
0.0
 20
0.0
 30
0.0
  0
VERTEX
  5
C04
  8
DATA
  6
CONTINUOUS
 62
     7
 10
158.15485607891961
 20
270.38437573761831
 30
0.0
  0
VERTEX
  5
C05
  8
DATA
  6
CONTINUOUS
 62
     7
 10
156.93972792494009
 20
269.29725838898889
 30
0.0
  0
VERTEX
  5
C06
  8
DATA
  6
CONTINUOUS
 62
     7
 10
154.9744183591591
 20
267.61729523002219
 30
0.0
  0
VERTEX
  5
C07
  8
DATA
  6
CONTINUOUS
 62
     7
 10
152.80270148318681
 20
266.50443149503451
 30
0.0
  0
SEQEND
  5
C08
  8
DATA
  6
CONTINUOUS
 62
     7
  0
POLYLINE
  5
22C
  8
DATA
  6
CONTINUOUS
 62
     7
 66
     1
 10
0.0
 20
0.0
 30
0.0
  0
VERTEX
  5
C09
  8
DATA
  6
CONTINUOUS
 62
     7
 10
150.630984607204
 20
265.3915677600416
 30
0.0
  0
VERTEX
  5
C0A
  8
DATA
  6
CONTINUOUS
 62
     7
 10
148.82027471195181
 20
265.05494669015928
 30
0.0
  0
VERTEX
  5
C0B
  8
DATA
  6
CONTINUOUS
 62
     7
 10
148.14723570194209
 20
265.1324039588967
 30
0.0
  0
SEQEND
  5
C0C
  8
DATA
  6
CONTINUOUS
 62
     7
  0
POLYLINE
  5
232
  8
DATA
  6
CONTINUOUS
 62
     7
 66
     1
 10
0.0
 20
0.0
 30
0.0
 70
   128
  0
VERTEX
  5
C0D
  8
DATA
  6
CONTINUOUS
 62
     7
 10
157.94760628990551
 20
270.9537898531209
 30
0.0
  0
VERTEX
  5
C0E
  8
DATA
  6
CONTINUOUS
 62
     7
 10
158.05123118441259
 20
270.6690827953696
 30
0.0
  0
VERTEX
  5
C0F
  8
DATA
  6
CONTINUOUS
 62
     7
 10
158.15485607891961
 20
270.38437573761831
 30
0.0
  0
SEQEND
  5
C10
  8
DATA
  6
CONTINUOUS
 62
     7
  0
POLYLINE
  5
237
  8
DATA
  6
CONTINUOUS
 62
     7
 66
     1
 10
0.0
 20
0.0
 30
0.0
  0
VERTEX
  5
C11
  8
DATA
  6
CONTINUOUS
 62
     7
 10
146.5692220950182
 20
270.35381181834919
 30
0.0
  0
VERTEX
  5
C12
  8
DATA
  6
CONTINUOUS
 62
     7
 10
147.5261256839627
 20
270.38229413564528
 30
0.0
  0
VERTEX
  5
C13
  8
DATA
  6
CONTINUOUS
 62
     7
 10
148.94734628119309
 20
270.8995761293632
 30
0.0
  0
VERTEX
  5
C14
  8
DATA
  6
CONTINUOUS
 62
     7
 10
152.72336574222641
 20
272.91616035821232
 30
0.0
  0
VERTEX
  5
C15
  8
DATA
  6
CONTINUOUS
 62
     7
 10
153.9384938962057
 20
274.00327770684129
 30
0.0
  0
VERTEX
  5
C16
  8
DATA
  6
CONTINUOUS
 62
     7
 10
154.2996414805873
 20
274.77913406658001
 30
0.0
  0
SEQEND
  5
C17
  8
DATA
  6
CONTINUOUS
 62
     7
  0
LINE
  5
240
  8
DATA
  6
CONTINUOUS
 62
     7
 10
147.3934284483386
 20
282.25033822052268
 30
0.0
 11
147.39277934900429
 21
282.25032048577128
 31
0.0
  0
LINE
  5
241
  8
DATA
  6
CONTINUOUS
 62
     7
 10
143.43767754930721
 20
279.8435108525461
 30
0.0
 11
143.33405265480019
 21
280.12821791029739
 31
0.0
  0
LINE
  5
242
  8
DATA
  6
CONTINUOUS
 62
     7
 10
143.43767754930721
 20
279.8435108525461
 30
0.0
 11
143.64408485950409
 21
279.27641142856959
 31
0.0
  0
POLYLINE
  5
243
  8
DATA
  6
CONTINUOUS
 62
     7
 66
     1
 10
0.0
 20
0.0
 30
0.0
 70
   128
  0
VERTEX
  5
C18
  8
DATA
  6
CONTINUOUS
 62
     7
 10
143.64408485950409
 20
279.27641142856959
 30
0.0
  0
VERTEX
  5
C19
  8
DATA
  6
CONTINUOUS
 62
     7
 10
145.06646280249831
 20
279.79411466169643
 30
0.0
  0
VERTEX
  5
C1A
  8
DATA
  6
CONTINUOUS
 62
     7
 10
146.9534726207236
 20
280.80335350217962
 30
0.0
  0
VERTEX
  5
C1B
  8
DATA
  6
CONTINUOUS
 62
     7
 10
148.16944325352111
 20
281.8881561592824
 30
0.0
  0
VERTEX
  5
C1C
  8
DATA
  6
CONTINUOUS
 62
     7
 10
148.35052541676569
 20
282.27648811154108
 30
0.0
  0
SEQEND
  5
C1D
  8
DATA
  6
CONTINUOUS
 62
     7
  0
LINE
  5
24A
  8
DATA
  6
CONTINUOUS
 62
     7
 10
148.16944325352111
 20
281.8881561592824
 30
0.0
 11
148.35052541676569
 21
282.27648811154108
 31
0.0
  0
LINE
  5
24B
  8
DATA
  6
CONTINUOUS
 62
     7
 10
143.07467074400139
 20
279.06916163955572
 30
0.0
 11
142.97104584949429
 21
279.35386869730718
 31
0.0
  0
POLYLINE
  5
24C
  8
DATA
  6
CONTINUOUS
 62
     7
 66
     1
 10
0.0
 20
0.0
 30
0.0
 70
   128
  0
VERTEX
  5
C1E
  8
DATA
  6
CONTINUOUS
 62
     7
 10
143.64408485950409
 20
279.27641142856959
 30
0.0
  0
VERTEX
  5
C1F
  8
DATA
  6
CONTINUOUS
 62
     7
 10
143.54045996499701
 20
279.56111848632111
 30
0.0
  0
VERTEX
  5
C20
  8
DATA
  6
CONTINUOUS
 62
     7
 10
143.43767754930721
 20
279.8435108525461
 30
0.0
  0
SEQEND
  5
C21
  8
DATA
  6
CONTINUOUS
 62
     7
  0
LINE
  5
251
  8
DATA
  6
CONTINUOUS
 62
     7
 10
147.67748640675521
 20
282.35394538027799
 30
0.0
 11
147.4837153444762
 21
282.44430231054781
 31
0.0
  0
POLYLINE
  5
252
  8
DATA
  6
CONTINUOUS
 62
     7
 66
     1
 10
0.0
 20
0.0
 30
0.0
  0
VERTEX
  5
C22
  8
DATA
  6
CONTINUOUS
 62
     7
 10
143.43767754930721
 20
279.8435108525461
 30
0.0
  0
VERTEX
  5
C23
  8
DATA
  6
CONTINUOUS
 62
     7
 10
143.64408485950409
 20
279.27641142856959
 30
0.0
  0
VERTEX
  5
C24
  8
DATA
  6
CONTINUOUS
 62
     7
 10
144.49704868699479
 20
279.5868648726821
 30
0.0
  0
SEQEND
  5
C25
  8
DATA
  6
CONTINUOUS
 62
     7
  0
LINE
  5
258
  8
DATA
  6
CONTINUOUS
 62
     7
 10
154.29950087693149
 20
274.7795203719495
 30
0.0
 11
148.6352324745167
 21
282.38011300604802
 31
0.0
  0
LINE
  5
259
  8
DATA
  6
CONTINUOUS
 62
     7
 10
143.07467074400139
 20
279.06916163955572
 30
0.0
 11
146.5692220950182
 21
270.35381181834919
 31
0.0
  0
LINE
  5
25A
  8
DATA
  6
CONTINUOUS
 62
     7
 10
148.6352324745167
 20
282.38011300604802
 30
0.0
 11
148.35052541676569
 21
282.27648811154108
 31
0.0
  0
LINE
  5
25B
  8
DATA
  6
CONTINUOUS
 62
     7
 10
147.39355091284651
 20
282.25060131204361
 30
0.0
 11
147.39277934900429
 21
282.25032048577128
 31
0.0
  0
POLYLINE
  5
25C
  8
DATA
  6
CONTINUOUS
 62
     7
 66
     1
 10
0.0
 20
0.0
 30
0.0
  0
VERTEX
  5
C26
  8
DATA
  6
CONTINUOUS
 62
     7
 10
148.35052541676569
 20
282.27648811154108
 30
0.0
  0
VERTEX
  5
C27
  8
DATA
  6
CONTINUOUS
 62
     7
 10
147.67748640675521
 20
282.35394538027799
 30
0.0
  0
VERTEX
  5
C28
  8
DATA
  6
CONTINUOUS
 62
     7
 10
147.4837153444762
 20
282.44430231054781
 30
0.0
  0
SEQEND
  5
C29
  8
DATA
  6
CONTINUOUS
 62
     7
  0
POLYLINE
  5
262
  8
DATA
  6
CONTINUOUS
 62
     7
 66
     1
 10
0.0
 20
0.0
 30
0.0
  0
VERTEX
  5
C2A
  8
DATA
  6
CONTINUOUS
 62
     7
 10
187.0
 20
438.75914319305201
 30
0.0
  0
VERTEX
  5
C2B
  8
DATA
  6
CONTINUOUS
 62
     7
 10
186.88909431649611
 20
438.75914319305201
 30
0.0
  0
VERTEX
  5
C2C
  8
DATA
  6
CONTINUOUS
 62
     7
 10
185.67841024802809
 20
439.06212211557801
 30
0.0
  0
VERTEX
  5
C2D
  8
DATA
  6
CONTINUOUS
 62
     7
 10
183.25704211109209
 20
439.06212211557801
 30
0.0
  0
VERTEX
  5
C2E
  8
DATA
  6
CONTINUOUS
 62
     7
 10
182.04635804262401
 20
438.75914319305201
 30
0.0
  0
VERTEX
  5
C2F
  8
DATA
  6
CONTINUOUS
 62
     7
 10
178.1113269146943
 20
438.75914319305201
 30
0.0
  0
VERTEX
  5
C30
  8
DATA
  6
CONTINUOUS
 62
     7
 10
176.9006428462263
 20
438.4561642705259
 30
0.0
  0
VERTEX
  5
C31
  8
DATA
  6
CONTINUOUS
 62
     7
 10
174.47927470929099
 20
438.4561642705259
 30
0.0
  0
VERTEX
  5
C32
  8
DATA
  6
CONTINUOUS
 62
     7
 10
172.9656117182966
 20
438.15318534799991
 30
0.0
  0
VERTEX
  5
C33
  8
DATA
  6
CONTINUOUS
 62
     7
 10
171.7549276498294
 20
438.15318534799991
 30
0.0
  0
VERTEX
  5
C34
  8
DATA
  6
CONTINUOUS
 62
     7
 10
170.5442435813614
 20
437.8502064254738
 30
0.0
  0
VERTEX
  5
C35
  8
DATA
  6
CONTINUOUS
 62
     7
 10
169.33355951289329
 20
437.8502064254738
 30
0.0
  0
VERTEX
  5
C36
  8
DATA
  6
CONTINUOUS
 62
     7
 10
168.12287544442529
 20
437.54722750294781
 30
0.0
  0
VERTEX
  5
C37
  8
DATA
  6
CONTINUOUS
 62
     7
 10
166.6092124534317
 20
437.2442485804217
 30
0.0
  0
VERTEX
  5
C38
  8
DATA
  6
CONTINUOUS
 62
     7
 10
165.39852838496361
 20
437.2442485804217
 30
0.0
  0
VERTEX
  5
C39
  8
DATA
  6
CONTINUOUS
 62
     7
 10
159.94983426604031
 20
436.33777505611619
 30
0.0
  0
VERTEX
  5
C3A
  8
DATA
  6
CONTINUOUS
 62
     7
 10
158.13442397415631
 20
436.33777505611619
 30
0.0
  0
VERTEX
  5
C3B
  8
DATA
  6
CONTINUOUS
 62
     7
 10
156.62076098316271
 20
436.03479613359019
 30
0.0
  0
VERTEX
  5
C3C
  8
DATA
  6
CONTINUOUS
 62
     7
 10
152.9887087777586
 20
435.42883828853792
 30
0.0
  0
VERTEX
  5
C3D
  8
DATA
  6
CONTINUOUS
 62
     7
 10
151.1720668642393
 20
435.42883828853792
 30
0.0
  0
VERTEX
  5
C3E
  8
DATA
  6
CONTINUOUS
 62
     7
 10
149.35665657235529
 20
435.12585936601192
 30
0.0
  0
VERTEX
  5
C3F
  8
DATA
  6
CONTINUOUS
 62
     7
 10
145.42162544442559
 20
435.12585936601192
 30
0.0
  0
VERTEX
  5
C40
  8
DATA
  6
CONTINUOUS
 62
     7
 10
143.30200460838
 20
434.82288044348587
 30
0.0
  0
VERTEX
  5
C41
  8
DATA
  6
CONTINUOUS
 62
     7
 10
140.88063647144389
 20
434.82288044348587
 30
0.0
  0
VERTEX
  5
C42
  8
DATA
  6
CONTINUOUS
 62
     7
 10
138.76224725703429
 20
434.52236476423241
 30
0.0
  0
VERTEX
  5
C43
  8
DATA
  6
CONTINUOUS
 62
     7
 10
136.34087912009821
 20
434.52236476423241
 30
0.0
  0
VERTEX
  5
C44
  8
DATA
  6
CONTINUOUS
 62
     7
 10
133.91951098316301
 20
434.21938584170641
 30
0.0
  0
VERTEX
  5
C45
  8
DATA
  6
CONTINUOUS
 62
     7
 10
132.70882691469501
 20
434.21938584170641
 30
0.0
  0
VERTEX
  5
C46
  8
DATA
  6
CONTINUOUS
 62
     7
 10
131.80112176875249
 20
433.91640691918047
 30
0.0
  0
VERTEX
  5
C47
  8
DATA
  6
CONTINUOUS
 62
     7
 10
130.5904377002845
 20
433.91640691918047
 30
0.0
  0
VERTEX
  5
C48
  8
DATA
  6
CONTINUOUS
 62
     7
 10
129.68150093270691
 20
433.61342799665431
 30
0.0
  0
VERTEX
  5
C49
  8
DATA
  6
CONTINUOUS
 62
     7
 10
128.47081686423891
 20
433.31044907412831
 30
0.0
  0
VERTEX
  5
C4A
  8
DATA
  6
CONTINUOUS
 62
     7
 10
127.2601327957708
 20
433.31044907412831
 30
0.0
  0
VERTEX
  5
C4B
  8
DATA
  6
CONTINUOUS
 62
     7
 10
125.4447225038876
 20
432.70449122907632
 30
0.0
  0
VERTEX
  5
C4C
  8
DATA
  6
CONTINUOUS
 62
     7
 10
124.23403843541961
 20
432.4015123065501
 30
0.0
  0
VERTEX
  5
C4D
  8
DATA
  6
CONTINUOUS
 62
     7
 10
123.3251016678411
 20
431.79801770477059
 30
0.0
  0
VERTEX
  5
C4E
  8
DATA
  6
CONTINUOUS
 62
     7
 10
122.7203754444251
 20
431.49503878224471
 30
0.0
  0
VERTEX
  5
C4F
  8
DATA
  6
CONTINUOUS
 62
     7
 10
120.9037335309059
 20
430.88908093719249
 30
0.0
  0
VERTEX
  5
C50
  8
DATA
  6
CONTINUOUS
 62
     7
 10
120.2990073074899
 20
430.28312309214039
 30
0.0
  0
VERTEX
  5
C51
  8
DATA
  6
CONTINUOUS
 62
     7
 10
119.6930494624379
 20
429.98014416961439
 30
0.0
  0
VERTEX
  5
C52
  8
DATA
  6
CONTINUOUS
 62
     7
 10
119.3913021615483
 20
429.3741863245624
 30
0.0
  0
VERTEX
  5
C53
  8
DATA
  6
CONTINUOUS
 62
     7
 10
118.7853443164955
 20
429.07367064530871
 30
0.0
  0
VERTEX
  5
C54
  8
DATA
  6
CONTINUOUS
 62
     7
 10
117.87763917055381
 20
428.16473387773078
 30
0.0
  0
VERTEX
  5
C55
  8
DATA
  6
CONTINUOUS
 62
     7
 10
117.5746602480282
 20
427.55877603267862
 30
0.0
  0
VERTEX
  5
C56
  8
DATA
  6
CONTINUOUS
 62
     7
 10
116.9699340246122
 20
426.95528143089899
 30
0.0
  0
VERTEX
  5
C57
  8
DATA
  6
CONTINUOUS
 62
     7
 10
116.9699340246122
 20
426.652302508373
 30
0.0
  0
VERTEX
  5
C58
  8
DATA
  6
CONTINUOUS
 62
     7
 10
116.3639761795602
 20
426.04634466332101
 30
0.0
  0
VERTEX
  5
C59
  8
DATA
  6
CONTINUOUS
 62
     7
 10
116.3639761795602
 20
425.44038681826902
 30
0.0
  0
VERTEX
  5
C5A
  8
DATA
  6
CONTINUOUS
 62
     7
 10
116.0609972570338
 20
424.8344289732168
 30
0.0
  0
VERTEX
  5
C5B
  8
DATA
  6
CONTINUOUS
 62
     7
 10
116.0609972570338
 20
424.23093437143717
 30
0.0
  0
VERTEX
  5
C5C
  8
DATA
  6
CONTINUOUS
 62
     7
 10
115.75801833450819
 20
423.6249765263853
 30
0.0
  0
VERTEX
  5
C5D
  8
DATA
  6
CONTINUOUS
 62
     7
 10
115.75801833450819
 20
423.01901868133308
 30
0.0
  0
VERTEX
  5
C5E
  8
DATA
  6
CONTINUOUS
 62
     7
 10
115.45627103361861
 20
422.11008191375498
 30
0.0
  0
VERTEX
  5
C5F
  8
DATA
  6
CONTINUOUS
 62
     7
 10
115.45627103361861
 20
420.90062946692342
 30
0.0
  0
SEQEND
  5
C60
  8
DATA
  6
CONTINUOUS
 62
     7
  0
LINE
  5
29B
  8
DATA
  6
CONTINUOUS
 62
     7
 10
147.39306055631641
 20
282.249547875031
 30
0.0
 11
147.39277934900429
 21
282.25032048577128
 31
0.0
  0
POLYLINE
  5
29C
  8
DATA
  6
CONTINUOUS
 62
     7
 66
     1
 10
0.0
 20
0.0
 30
0.0
  0
VERTEX
  5
C61
  8
DATA
  6
CONTINUOUS
 62
     7
 10
143.12680286578609
 20
280.6976320258002
 30
0.0
  0
VERTEX
  5
C62
  8
DATA
  6
CONTINUOUS
 62
     7
 10
144.26447375102859
 20
281.11171036441982
 30
0.0
  0
VERTEX
  5
C63
  8
DATA
  6
CONTINUOUS
 62
     7
 10
144.73026297202441
 20
281.60366721118521
 30
0.0
  0
VERTEX
  5
C64
  8
DATA
  6
CONTINUOUS
 62
     7
 10
145.47960190500811
 20
282.19882771304879
 30
0.0
  0
VERTEX
  5
C65
  8
DATA
  6
CONTINUOUS
 62
     7
 10
146.41002300123651
 20
283.18232016717133
 30
0.0
  0
VERTEX
  5
C66
  8
DATA
  6
CONTINUOUS
 62
     7
 10
146.5919476432984
 20
283.5683374279032
 30
0.0
  0
VERTEX
  5
C67
  8
DATA
  6
CONTINUOUS
 62
     7
 10
146.59131621314609
 20
283.57007226798862
 30
0.0
  0
SEQEND
  5
C68
  8
DATA
  6
CONTINUOUS
 62
     7
  0
LINE
  5
2A6
  8
DATA
  6
CONTINUOUS
 62
     7
 10
146.38490890294941
 20
284.1371716919644
 30
0.0
 11
146.3846978542843
 21
284.13775154340618
 31
0.0
  0
POLYLINE
  5
2A7
  8
DATA
  6
CONTINUOUS
 62
     7
 66
     1
 10
0.0
 20
0.0
 30
0.0
  0
VERTEX
  5
C69
  8
DATA
  6
CONTINUOUS
 62
     7
 10
142.11756402530241
 20
282.58464184402641
 30
0.0
  0
VERTEX
  5
C6A
  8
DATA
  6
CONTINUOUS
 62
     7
 10
143.2552349105448
 20
282.99872018264603
 30
0.0
  0
VERTEX
  5
C6B
  8
DATA
  6
CONTINUOUS
 62
     7
 10
143.71949798300059
 20
283.48946488989583
 30
0.0
  0
SEQEND
  5
C6C
  8
DATA
  6
CONTINUOUS
 62
     7
  0
POLYLINE
  5
2AD
  8
DATA
  6
CONTINUOUS
 62
     7
 66
     1
 10
0.0
 20
0.0
 30
0.0
  0
VERTEX
  5
C6D
  8
DATA
  6
CONTINUOUS
 62
     7
 10
144.93462998069509
 20
284.5765863014858
 30
0.0
  0
VERTEX
  5
C6E
  8
DATA
  6
CONTINUOUS
 62
     7
 10
144.93615228552079
 20
284.57779437804072
 30
0.0
  0
VERTEX
  5
C6F
  8
DATA
  6
CONTINUOUS
 62
     7
 10
144.93651916253401
 20
284.57858324253812
 30
0.0
  0
SEQEND
  5
C70
  8
DATA
  6
CONTINUOUS
 62
     7
  0
POLYLINE
  5
2B3
  8
DATA
  6
CONTINUOUS
 62
     7
 66
     1
 10
0.0
 20
0.0
 30
0.0
  0
VERTEX
  5
C71
  8
DATA
  6
CONTINUOUS
 62
     7
 10
135.73492127504619
 20
301.03674858042177
 30
0.0
  0
VERTEX
  5
C72
  8
DATA
  6
CONTINUOUS
 62
     7
 10
136.94683696515031
 20
301.03674858042177
 30
0.0
  0
VERTEX
  5
C73
  8
DATA
  6
CONTINUOUS
 62
     7
 10
138.15752103361851
 20
301.64270642547388
 30
0.0
  0
SEQEND
  5
C74
  8
DATA
  6
CONTINUOUS
 62
     7
  0
LINE
  5
2B9
  8
DATA
  6
CONTINUOUS
 62
     7
 10
134.8272161291045
 20
305.27599025251368
 30
0.0
 11
135.4331739741566
 21
305.27599025251368
 31
0.0
  0
POLYLINE
  5
2BA
  8
DATA
  6
CONTINUOUS
 62
     7
 66
     1
 10
0.0
 20
0.0
 30
0.0
  0
VERTEX
  5
C75
  8
DATA
  6
CONTINUOUS
 62
     7
 10
134.5254688282142
 20
307.39437946692362
 30
0.0
  0
VERTEX
  5
C76
  8
DATA
  6
CONTINUOUS
 62
     7
 10
135.13019505163021
 20
307.39437946692362
 30
0.0
  0
VERTEX
  5
C77
  8
DATA
  6
CONTINUOUS
 62
     7
 10
135.73492127504619
 20
307.69735838944962
 30
0.0
  0
VERTEX
  5
C78
  8
DATA
  6
CONTINUOUS
 62
     7
 10
136.6438580426246
 20
307.69735838944962
 30
0.0
  0
VERTEX
  5
C79
  8
DATA
  6
CONTINUOUS
 62
     7
 10
137.253535112169
 20
308.00178330341481
 30
0.0
  0
SEQEND
  5
C7A
  8
DATA
  6
CONTINUOUS
 62
     7
  0
POLYLINE
  5
2C2
  8
DATA
  6
CONTINUOUS
 62
     7
 66
     1
 10
0.0
 20
0.0
 30
0.0
  0
VERTEX
  5
C7B
  8
DATA
  6
CONTINUOUS
 62
     7
 10
138.4592683345079
 20
308.60383191375519
 30
0.0
  0
VERTEX
  5
C7C
  8
DATA
  6
CONTINUOUS
 62
     7
 10
138.76224725703429
 20
308.90681083628118
 30
0.0
  0
VERTEX
  5
C7D
  8
DATA
  6
CONTINUOUS
 62
     7
 10
138.76224725703429
 20
309.51276868133323
 30
0.0
  0
SEQEND
  5
C7E
  8
DATA
  6
CONTINUOUS
 62
     7
  0
LINE
  5
2C8
  8
DATA
  6
CONTINUOUS
 62
     7
 10
134.2224899056886
 20
309.51276868133323
 30
0.0
 11
134.8272161291045
 21
309.51276868133323
 31
0.0
  0
LINE
  5
2C9
  8
DATA
  6
CONTINUOUS
 62
     7
 10
136.94683696515031
 20
310.11872652638522
 30
0.0
 11
137.55156318856621
 21
310.42170544891121
 31
0.0
  0
POLYLINE
  5
2CA
  8
DATA
  6
CONTINUOUS
 62
     7
 66
     1
 10
0.0
 20
0.0
 30
0.0
  0
VERTEX
  5
C7F
  8
DATA
  6
CONTINUOUS
 62
     7
 10
133.91951098316301
 20
311.63115789574277
 30
0.0
  0
VERTEX
  5
C80
  8
DATA
  6
CONTINUOUS
 62
     7
 10
134.5254688282142
 20
311.63115789574277
 30
0.0
  0
VERTEX
  5
C81
  8
DATA
  6
CONTINUOUS
 62
     7
 10
135.1301950516299
 20
311.93413681826883
 30
0.0
  0
SEQEND
  5
C82
  8
DATA
  6
CONTINUOUS
 62
     7
  0
LINE
  5
2D0
  8
DATA
  6
CONTINUOUS
 62
     7
 10
133.31355313811011
 20
313.74954711015261
 30
0.0
 11
133.61653206063659
 21
313.74954711015261
 31
0.0
  0
POLYLINE
  5
2D1
  8
DATA
  6
CONTINUOUS
 62
     7
 66
     1
 10
0.0
 20
0.0
 30
0.0
  0
VERTEX
  5
C83
  8
DATA
  6
CONTINUOUS
 62
     7
 10
134.8272161291045
 20
314.05252603267871
 30
0.0
  0
VERTEX
  5
C84
  8
DATA
  6
CONTINUOUS
 62
     7
 10
135.4331739741566
 20
314.35550495520471
 30
0.0
  0
VERTEX
  5
C85
  8
DATA
  6
CONTINUOUS
 62
     7
 10
136.34087912009821
 20
314.65848387773087
 30
0.0
  0
VERTEX
  5
C86
  8
DATA
  6
CONTINUOUS
 62
     7
 10
136.94683696515031
 20
314.96146280025692
 30
0.0
  0
VERTEX
  5
C87
  8
DATA
  6
CONTINUOUS
 62
     7
 10
136.94745235846941
 20
314.96207902857378
 30
0.0
  0
SEQEND
  5
C88
  8
DATA
  6
CONTINUOUS
 62
     7
  0
LINE
  5
2D9
  8
DATA
  6
CONTINUOUS
 62
     7
 10
133.01180583722061
 20
315.87039956783491
 30
0.0
 11
133.31355313811011
 21
315.87039956783491
 31
0.0
  0
POLYLINE
  5
2DA
  8
DATA
  6
CONTINUOUS
 62
     7
 66
     1
 10
0.0
 20
0.0
 30
0.0
  0
VERTEX
  5
C89
  8
DATA
  6
CONTINUOUS
 62
     7
 10
132.70882691469501
 20
317.98878878224463
 30
0.0
  0
VERTEX
  5
C8A
  8
DATA
  6
CONTINUOUS
 62
     7
 10
133.01180583722061
 20
317.98878878224463
 30
0.0
  0
VERTEX
  5
C8B
  8
DATA
  6
CONTINUOUS
 62
     7
 10
133.31355313811011
 20
318.29176770477062
 30
0.0
  0
VERTEX
  5
C8C
  8
DATA
  6
CONTINUOUS
 62
     7
 10
134.2224899056886
 20
318.29176770477062
 30
0.0
  0
VERTEX
  5
C8D
  8
DATA
  6
CONTINUOUS
 62
     7
 10
134.82537119994589
 20
318.59290169813818
 30
0.0
  0
SEQEND
  5
C8E
  8
DATA
  6
CONTINUOUS
 62
     7
  0
POLYLINE
  5
2E2
  8
DATA
  6
CONTINUOUS
 62
     7
 66
     1
 10
0.0
 20
0.0
 30
0.0
  0
VERTEX
  5
C8F
  8
DATA
  6
CONTINUOUS
 62
     7
 10
132.55733745343181
 20
320.2586674579174
 30
0.0
  0
VERTEX
  5
C90
  8
DATA
  6
CONTINUOUS
 62
     7
 10
132.70882691469501
 20
320.41015691918039
 30
0.0
  0
VERTEX
  5
C91
  8
DATA
  6
CONTINUOUS
 62
     7
 10
133.61653206063659
 20
320.41015691918039
 30
0.0
  0
VERTEX
  5
C92
  8
DATA
  6
CONTINUOUS
 62
     7
 10
134.5254688282142
 20
320.7131358417065
 30
0.0
  0
SEQEND
  5
C93
  8
DATA
  6
CONTINUOUS
 62
     7
  0
POLYLINE
  5
2E9
  8
DATA
  6
CONTINUOUS
 62
     7
 66
     1
 10
0.0
 20
0.0
 30
0.0
  0
VERTEX
  5
C94
  8
DATA
  6
CONTINUOUS
 62
     7
 10
132.70882691469501
 20
322.52854613359023
 30
0.0
  0
VERTEX
  5
C95
  8
DATA
  6
CONTINUOUS
 62
     7
 10
133.31355313811011
 20
322.52854613359023
 30
0.0
  0
VERTEX
  5
C96
  8
DATA
  6
CONTINUOUS
 62
     7
 10
134.2224899056886
 20
322.83152505611639
 30
0.0
  0
VERTEX
  5
C97
  8
DATA
  6
CONTINUOUS
 62
     7
 10
134.82906481575569
 20
323.13512104365748
 30
0.0
  0
SEQEND
  5
C98
  8
DATA
  6
CONTINUOUS
 62
     7
  0
LINE
  5
2F0
  8
DATA
  6
CONTINUOUS
 62
     7
 10
131.4981428462269
 20
324.64693534799989
 30
0.0
 11
132.4058479921685
 21
324.64693534799989
 31
0.0
  0
POLYLINE
  5
2F1
  8
DATA
  6
CONTINUOUS
 62
     7
 66
     1
 10
0.0
 20
0.0
 30
0.0
  0
VERTEX
  5
C99
  8
DATA
  6
CONTINUOUS
 62
     7
 10
133.91951098316301
 20
324.94991427052588
 30
0.0
  0
VERTEX
  5
C9A
  8
DATA
  6
CONTINUOUS
 62
     7
 10
135.13019505163021
 20
325.55587211557793
 30
0.0
  0
VERTEX
  5
C9B
  8
DATA
  6
CONTINUOUS
 62
     7
 10
135.13060839373671
 20
325.55628461584718
 30
0.0
  0
SEQEND
  5
C9C
  8
DATA
  6
CONTINUOUS
 62
     7
  0
LINE
  5
2F7
  8
DATA
  6
CONTINUOUS
 62
     7
 10
135.73492127504619
 20
326.15936671735761
 30
0.0
 11
135.73492127504619
 21
326.76532456240949
 31
0.0
  0
LINE
  5
2F8
  8
DATA
  6
CONTINUOUS
 62
     7
 10
131.19516392370051
 20
326.76532456240949
 30
0.0
 11
132.10410069127889
 21
326.76532456240949
 31
0.0
  0
LINE
  5
2F9
  8
DATA
  6
CONTINUOUS
 62
     7
 10
133.61653206063659
 20
327.0683034849356
 30
0.0
 11
134.8272161291045
 21
327.6742613299877
 31
0.0
  0
POLYLINE
  5
2FA
  8
DATA
  6
CONTINUOUS
 62
     7
 66
     1
 10
0.0
 20
0.0
 30
0.0
  0
VERTEX
  5
C9D
  8
DATA
  6
CONTINUOUS
 62
     7
 10
130.89218500117491
 20
328.88371377681921
 30
0.0
  0
VERTEX
  5
C9E
  8
DATA
  6
CONTINUOUS
 62
     7
 10
131.80112176875249
 20
328.88371377681921
 30
0.0
  0
VERTEX
  5
C9F
  8
DATA
  6
CONTINUOUS
 62
     7
 10
133.01180583722061
 20
329.48967162187148
 30
0.0
  0
VERTEX
  5
CA0
  8
DATA
  6
CONTINUOUS
 62
     7
 10
133.91951098316301
 20
329.79265054439742
 30
0.0
  0
VERTEX
  5
CA1
  8
DATA
  6
CONTINUOUS
 62
     7
 10
134.5254688282142
 20
330.09562946692353
 30
0.0
  0
VERTEX
  5
CA2
  8
DATA
  6
CONTINUOUS
 62
     7
 10
134.72663369547169
 20
330.29761541527148
 30
0.0
  0
SEQEND
  5
CA3
  8
DATA
  6
CONTINUOUS
 62
     7
  0
LINE
  5
303
  8
DATA
  6
CONTINUOUS
 62
     7
 10
134.8272161291045
 20
331.00292518640612
 30
0.0
 11
134.8272161291045
 21
331.00456623450168
 31
0.0
  0
POLYLINE
  5
304
  8
DATA
  6
CONTINUOUS
 62
     7
 66
     1
 10
0.0
 20
0.0
 30
0.0
  0
VERTEX
  5
CA4
  8
DATA
  6
CONTINUOUS
 62
     7
 10
130.2874587777589
 20
331.00456623450168
 30
0.0
  0
VERTEX
  5
CA5
  8
DATA
  6
CONTINUOUS
 62
     7
 10
131.4981428462269
 20
331.00456623450168
 30
0.0
  0
VERTEX
  5
CA6
  8
DATA
  6
CONTINUOUS
 62
     7
 10
132.70882691469501
 20
331.6080608362812
 30
0.0
  0
VERTEX
  5
CA7
  8
DATA
  6
CONTINUOUS
 62
     7
 10
133.61653206063659
 20
331.91103975880719
 30
0.0
  0
SEQEND
  5
CA8
  8
DATA
  6
CONTINUOUS
 62
     7
  0
POLYLINE
  5
30B
  8
DATA
  6
CONTINUOUS
 62
     7
 66
     1
 10
0.0
 20
0.0
 30
0.0
  0
VERTEX
  5
CA9
  8
DATA
  6
CONTINUOUS
 62
     7
 10
134.52423970479731
 20
332.51638304215089
 30
0.0
  0
VERTEX
  5
CAA
  8
DATA
  6
CONTINUOUS
 62
     7
 10
134.5254688282142
 20
332.51699760385918
 30
0.0
  0
VERTEX
  5
CAB
  8
DATA
  6
CONTINUOUS
 62
     7
 10
134.5254688282142
 20
332.5176146688741
 30
0.0
  0
SEQEND
  5
CAC
  8
DATA
  6
CONTINUOUS
 62
     7
  0
LINE
  5
311
  8
DATA
  6
CONTINUOUS
 62
     7
 10
134.5254688282142
 20
333.12233838389648
 30
0.0
 11
134.5254688282142
 21
333.12295544891123
 31
0.0
  0
POLYLINE
  5
312
  8
DATA
  6
CONTINUOUS
 62
     7
 66
     1
 10
0.0
 20
0.0
 30
0.0
  0
VERTEX
  5
CAD
  8
DATA
  6
CONTINUOUS
 62
     7
 10
129.98447985523319
 20
333.12295544891123
 30
0.0
  0
VERTEX
  5
CAE
  8
DATA
  6
CONTINUOUS
 62
     7
 10
130.89218500117491
 20
333.12295544891123
 30
0.0
  0
VERTEX
  5
CAF
  8
DATA
  6
CONTINUOUS
 62
     7
 10
131.80112176875249
 20
333.42593437143728
 30
0.0
  0
VERTEX
  5
CB0
  8
DATA
  6
CONTINUOUS
 62
     7
 10
133.61653206063659
 20
334.3324078957429
 30
0.0
  0
VERTEX
  5
CB1
  8
DATA
  6
CONTINUOUS
 62
     7
 10
134.2224899056886
 20
334.93836574079518
 30
0.0
  0
SEQEND
  5
CB2
  8
DATA
  6
CONTINUOUS
 62
     7
  0
POLYLINE
  5
31A
  8
DATA
  6
CONTINUOUS
 62
     7
 66
     1
 10
0.0
 20
0.0
 30
0.0
  0
VERTEX
  5
CB3
  8
DATA
  6
CONTINUOUS
 62
     7
 10
129.68150093270691
 20
335.24134466332089
 30
0.0
  0
VERTEX
  5
CB4
  8
DATA
  6
CONTINUOUS
 62
     7
 10
130.5904377002845
 20
335.24134466332089
 30
0.0
  0
VERTEX
  5
CB5
  8
DATA
  6
CONTINUOUS
 62
     7
 10
131.4981428462269
 20
335.544323585847
 30
0.0
  0
VERTEX
  5
CB6
  8
DATA
  6
CONTINUOUS
 62
     7
 10
132.10654406968601
 20
335.8481114423368
 30
0.0
  0
SEQEND
  5
CB7
  8
DATA
  6
CONTINUOUS
 62
     7
  0
LINE
  5
321
  8
DATA
  6
CONTINUOUS
 62
     7
 10
129.37975363181729
 20
337.35973387773089
 30
0.0
 11
129.68150093270691
 21
337.35973387773089
 31
0.0
  0
POLYLINE
  5
322
  8
DATA
  6
CONTINUOUS
 62
     7
 66
     1
 10
0.0
 20
0.0
 30
0.0
  0
VERTEX
  5
CB8
  8
DATA
  6
CONTINUOUS
 62
     7
 10
133.01180583722061
 20
338.57164956783498
 30
0.0
  0
VERTEX
  5
CB9
  8
DATA
  6
CONTINUOUS
 62
     7
 10
133.31355313811011
 20
338.8721652470885
 30
0.0
  0
VERTEX
  5
CBA
  8
DATA
  6
CONTINUOUS
 62
     7
 10
133.31355313811011
 20
339.47812309214061
 30
0.0
  0
SEQEND
  5
CBB
  8
DATA
  6
CONTINUOUS
 62
     7
  0
LINE
  5
328
  8
DATA
  6
CONTINUOUS
 62
     7
 10
128.77379578676531
 20
339.47812309214061
 30
0.0
 11
129.37975363181729
 21
339.47812309214061
 31
0.0
  0
POLYLINE
  5
329
  8
DATA
  6
CONTINUOUS
 62
     7
 66
     1
 10
0.0
 20
0.0
 30
0.0
  0
VERTEX
  5
CBC
  8
DATA
  6
CONTINUOUS
 62
     7
 10
130.5904377002845
 20
339.7811020146666
 30
0.0
  0
VERTEX
  5
CBD
  8
DATA
  6
CONTINUOUS
 62
     7
 10
131.4981428462269
 20
340.0840809371926
 30
0.0
  0
VERTEX
  5
CBE
  8
DATA
  6
CONTINUOUS
 62
     7
 10
132.70882691469501
 20
340.69003878224459
 30
0.0
  0
SEQEND
  5
CBF
  8
DATA
  6
CONTINUOUS
 62
     7
  0
LINE
  5
32F
  8
DATA
  6
CONTINUOUS
 62
     7
 10
133.01180583722061
 20
341.59589524153512
 30
0.0
 11
133.01180583722061
 21
341.59651230655032
 31
0.0
  0
POLYLINE
  5
330
  8
DATA
  6
CONTINUOUS
 62
     7
 66
     1
 10
0.0
 20
0.0
 30
0.0
  0
VERTEX
  5
CC0
  8
DATA
  6
CONTINUOUS
 62
     7
 10
128.47081686423891
 20
341.59651230655032
 30
0.0
  0
VERTEX
  5
CC1
  8
DATA
  6
CONTINUOUS
 62
     7
 10
129.0767747092909
 20
341.59651230655032
 30
0.0
  0
VERTEX
  5
CC2
  8
DATA
  6
CONTINUOUS
 62
     7
 10
129.68150093270691
 20
341.8994912290762
 30
0.0
  0
VERTEX
  5
CC3
  8
DATA
  6
CONTINUOUS
 62
     7
 10
130.2874587777589
 20
341.8994912290762
 30
0.0
  0
VERTEX
  5
CC4
  8
DATA
  6
CONTINUOUS
 62
     7
 10
131.19516392370051
 20
342.20247015160231
 30
0.0
  0
VERTEX
  5
CC5
  8
DATA
  6
CONTINUOUS
 62
     7
 10
131.80112176875249
 20
342.50544907412831
 30
0.0
  0
VERTEX
  5
CC6
  8
DATA
  6
CONTINUOUS
 62
     7
 10
131.80174009308411
 20
342.50606676944221
 30
0.0
  0
SEQEND
  5
CC7
  8
DATA
  6
CONTINUOUS
 62
     7
  0
LINE
  5
33A
  8
DATA
  6
CONTINUOUS
 62
     7
 10
132.70667408012801
 20
343.41008017257229
 30
0.0
 11
132.70918614637441
 21
343.41258968330902
 31
0.0
  0
POLYLINE
  5
33B
  8
DATA
  6
CONTINUOUS
 62
     7
 66
     1
 10
0.0
 20
0.0
 30
0.0
  0
VERTEX
  5
CC8
  8
DATA
  6
CONTINUOUS
 62
     7
 10
128.16783794171241
 20
343.71490152095993
 30
0.0
  0
VERTEX
  5
CC9
  8
DATA
  6
CONTINUOUS
 62
     7
 10
128.77379578676531
 20
343.71490152095993
 30
0.0
  0
VERTEX
  5
CCA
  8
DATA
  6
CONTINUOUS
 62
     7
 10
129.37790994669061
 20
344.01726588177701
 30
0.0
  0
SEQEND
  5
CCB
  8
DATA
  6
CONTINUOUS
 62
     7
  0
LINE
  5
341
  8
DATA
  6
CONTINUOUS
 62
     7
 10
130.89218500117491
 20
344.32085936601197
 30
0.0
 11
131.4981428462269
 21
344.62383828853791
 31
0.0
  0
POLYLINE
  5
342
  8
DATA
  6
CONTINUOUS
 62
     7
 66
     1
 10
0.0
 20
0.0
 30
0.0
  0
VERTEX
  5
CCC
  8
DATA
  6
CONTINUOUS
 62
     7
 10
132.10327961018811
 20
345.22979613359018
 30
0.0
  0
VERTEX
  5
CCD
  8
DATA
  6
CONTINUOUS
 62
     7
 10
132.10410069127889
 20
345.22979613359018
 30
0.0
  0
VERTEX
  5
CCE
  8
DATA
  6
CONTINUOUS
 62
     7
 10
132.10410069127889
 20
345.23061832876658
 30
0.0
  0
SEQEND
  5
CCF
  8
DATA
  6
CONTINUOUS
 62
     7
  0
LINE
  5
348
  8
DATA
  6
CONTINUOUS
 62
     7
 10
128.77379578676531
 20
346.13873290116828
 30
0.0
 11
129.0767747092909
 21
346.13873290116828
 31
0.0
  0
LINE
  5
349
  8
DATA
  6
CONTINUOUS
 62
     7
 10
127.2601327957708
 20
347.954143193052
 30
0.0
 11
127.56311171829719
 21
347.954143193052
 31
0.0
  0
POLYLINE
  5
34A
  8
DATA
  6
CONTINUOUS
 62
     7
 66
     1
 10
0.0
 20
0.0
 30
0.0
  0
VERTEX
  5
CD0
  8
DATA
  6
CONTINUOUS
 62
     7
 10
128.47081686423891
 20
348.257122115578
 30
0.0
  0
VERTEX
  5
CD1
  8
DATA
  6
CONTINUOUS
 62
     7
 10
128.77379578676531
 20
348.257122115578
 30
0.0
  0
VERTEX
  5
CD2
  8
DATA
  6
CONTINUOUS
 62
     7
 10
131.19516392370051
 20
349.46657456240962
 30
0.0
  0
VERTEX
  5
CD3
  8
DATA
  6
CONTINUOUS
 62
     7
 10
131.80112176875249
 20
350.07253240746172
 30
0.0
  0
SEQEND
  5
CD4
  8
DATA
  6
CONTINUOUS
 62
     7
  0
LINE
  5
351
  8
DATA
  6
CONTINUOUS
 62
     7
 10
126.9583854948812
 20
350.07253240746172
 30
0.0
 11
127.2601327957708
 21
350.07253240746172
 31
0.0
  0
POLYLINE
  5
352
  8
DATA
  6
CONTINUOUS
 62
     7
 66
     1
 10
0.0
 20
0.0
 30
0.0
  0
VERTEX
  5
CD5
  8
DATA
  6
CONTINUOUS
 62
     7
 10
128.16783794171241
 20
350.37551132998772
 30
0.0
  0
VERTEX
  5
CD6
  8
DATA
  6
CONTINUOUS
 62
     7
 10
129.0767747092909
 20
350.6784902525136
 30
0.0
  0
VERTEX
  5
CD7
  8
DATA
  6
CONTINUOUS
 62
     7
 10
129.68758322896281
 20
350.98348012393723
 30
0.0
  0
SEQEND
  5
CD8
  8
DATA
  6
CONTINUOUS
 62
     7
  0
POLYLINE
  5
358
  8
DATA
  6
CONTINUOUS
 62
     7
 66
     1
 10
0.0
 20
0.0
 30
0.0
  0
VERTEX
  5
CD9
  8
DATA
  6
CONTINUOUS
 62
     7
 10
127.2601327957708
 20
352.49390054439732
 30
0.0
  0
VERTEX
  5
CDA
  8
DATA
  6
CONTINUOUS
 62
     7
 10
127.8660906408228
 20
352.49390054439732
 30
0.0
  0
VERTEX
  5
CDB
  8
DATA
  6
CONTINUOUS
 62
     7
 10
128.77379578676531
 20
352.7968794669236
 30
0.0
  0
SEQEND
  5
CDC
  8
DATA
  6
CONTINUOUS
 62
     7
  0
POLYLINE
  5
35E
  8
DATA
  6
CONTINUOUS
 62
     7
 66
     1
 10
0.0
 20
0.0
 30
0.0
  0
VERTEX
  5
CDD
  8
DATA
  6
CONTINUOUS
 62
     7
 10
122.7203754444251
 20
373.68271917503972
 30
0.0
  0
VERTEX
  5
CDE
  8
DATA
  6
CONTINUOUS
 62
     7
 10
123.3251016678411
 20
373.68271917503972
 30
0.0
  0
VERTEX
  5
CDF
  8
DATA
  6
CONTINUOUS
 62
     7
 10
123.9310595128931
 20
373.98323485429319
 30
0.0
  0
VERTEX
  5
CE0
  8
DATA
  6
CONTINUOUS
 62
     7
 10
124.537017357946
 20
373.98323485429319
 30
0.0
  0
VERTEX
  5
CE1
  8
DATA
  6
CONTINUOUS
 62
     7
 10
125.4447225038876
 20
374.28621377681941
 30
0.0
  0
SEQEND
  5
CE2
  8
DATA
  6
CONTINUOUS
 62
     7
  0
POLYLINE
  5
366
  8
DATA
  6
CONTINUOUS
 62
     7
 66
     1
 10
0.0
 20
0.0
 30
0.0
  0
VERTEX
  5
CE3
  8
DATA
  6
CONTINUOUS
 62
     7
 10
122.41739652189951
 20
375.8011083894495
 30
0.0
  0
VERTEX
  5
CE4
  8
DATA
  6
CONTINUOUS
 62
     7
 10
123.02335436695159
 20
375.8011083894495
 30
0.0
  0
VERTEX
  5
CE5
  8
DATA
  6
CONTINUOUS
 62
     7
 10
123.6280805903675
 20
376.10408731197538
 30
0.0
  0
VERTEX
  5
CE6
  8
DATA
  6
CONTINUOUS
 62
     7
 10
124.23403843541961
 20
376.10408731197538
 30
0.0
  0
SEQEND
  5
CE7
  8
DATA
  6
CONTINUOUS
 62
     7
  0
POLYLINE
  5
36D
  8
DATA
  6
CONTINUOUS
 62
     7
 66
     1
 10
0.0
 20
0.0
 30
0.0
  0
VERTEX
  5
CE8
  8
DATA
  6
CONTINUOUS
 62
     7
 10
125.7409462440509
 20
376.70575321793802
 30
0.0
  0
VERTEX
  5
CE9
  8
DATA
  6
CONTINUOUS
 62
     7
 10
125.74646980477721
 20
376.70758191375512
 30
0.0
  0
VERTEX
  5
CEA
  8
DATA
  6
CONTINUOUS
 62
     7
 10
125.74831348990431
 20
376.70942559888221
 30
0.0
  0
SEQEND
  5
CEB
  8
DATA
  6
CONTINUOUS
 62
     7
  0
POLYLINE
  5
373
  8
DATA
  6
CONTINUOUS
 62
     7
 66
     1
 10
0.0
 20
0.0
 30
0.0
 70
   128
  0
VERTEX
  5
CEC
  8
DATA
  6
CONTINUOUS
 62
     7
 10
122.11441759937389
 20
377.91949760385933
 30
0.0
  0
VERTEX
  5
CED
  8
DATA
  6
CONTINUOUS
 62
     7
 10
122.7203754444251
 20
377.91949760385933
 30
0.0
  0
VERTEX
  5
CEE
  8
DATA
  6
CONTINUOUS
 62
     7
 10
123.9310595128931
 20
378.5254554489112
 30
0.0
  0
VERTEX
  5
CEF
  8
DATA
  6
CONTINUOUS
 62
     7
 10
124.537017357946
 20
378.5254554489112
 30
0.0
  0
VERTEX
  5
CF0
  8
DATA
  6
CONTINUOUS
 62
     7
 10
125.1417435813612
 20
378.82843437143748
 30
0.0
  0
VERTEX
  5
CF1
  8
DATA
  6
CONTINUOUS
 62
     7
 10
126.3524276498292
 20
380.03788681826899
 30
0.0
  0
SEQEND
  5
CF2
  8
DATA
  6
CONTINUOUS
 62
     7
  0
LINE
  5
37B
  8
DATA
  6
CONTINUOUS
 62
     7
 10
121.5096913759579
 20
380.03788681826899
 30
0.0
 11
121.8126702984835
 21
380.03788681826899
 31
0.0
  0
POLYLINE
  5
37C
  8
DATA
  6
CONTINUOUS
 62
     7
 66
     1
 10
0.0
 20
0.0
 30
0.0
  0
VERTEX
  5
CF3
  8
DATA
  6
CONTINUOUS
 62
     7
 10
122.7203754444251
 20
380.34086574079498
 30
0.0
  0
VERTEX
  5
CF4
  8
DATA
  6
CONTINUOUS
 62
     7
 10
123.6280805903675
 20
380.64384466332092
 30
0.0
  0
VERTEX
  5
CF5
  8
DATA
  6
CONTINUOUS
 62
     7
 10
125.4447225038876
 20
381.5503181876266
 30
0.0
  0
VERTEX
  5
CF6
  8
DATA
  6
CONTINUOUS
 62
     7
 10
126.0494487273036
 20
382.1562760326787
 30
0.0
  0
SEQEND
  5
CF7
  8
DATA
  6
CONTINUOUS
 62
     7
  0
LINE
  5
383
  8
DATA
  6
CONTINUOUS
 62
     7
 10
121.20671245343151
 20
382.1562760326787
 30
0.0
 11
121.5096913759579
 21
382.1562760326787
 31
0.0
  0
LINE
  5
384
  8
DATA
  6
CONTINUOUS
 62
     7
 10
122.41739652189951
 20
382.45925495520493
 30
0.0
 11
123.3251016678411
 21
382.76223387773081
 31
0.0
  0
POLYLINE
  5
385
  8
DATA
  6
CONTINUOUS
 62
     7
 66
     1
 10
0.0
 20
0.0
 30
0.0
  0
VERTEX
  5
CF8
  8
DATA
  6
CONTINUOUS
 62
     7
 10
125.1417435813612
 20
383.67117064530891
 30
0.0
  0
VERTEX
  5
CF9
  8
DATA
  6
CONTINUOUS
 62
     7
 10
125.4447225038876
 20
383.9741495678349
 30
0.0
  0
VERTEX
  5
CFA
  8
DATA
  6
CONTINUOUS
 62
     7
 10
125.4447225038876
 20
384.57764416961447
 30
0.0
  0
SEQEND
  5
CFB
  8
DATA
  6
CONTINUOUS
 62
     7
  0
POLYLINE
  5
38B
  8
DATA
  6
CONTINUOUS
 62
     7
 66
     1
 10
0.0
 20
0.0
 30
0.0
  0
VERTEX
  5
CFC
  8
DATA
  6
CONTINUOUS
 62
     7
 10
120.9037335309059
 20
384.57764416961447
 30
0.0
  0
VERTEX
  5
CFD
  8
DATA
  6
CONTINUOUS
 62
     7
 10
122.11441759937389
 20
384.57764416961447
 30
0.0
  0
VERTEX
  5
CFE
  8
DATA
  6
CONTINUOUS
 62
     7
 10
123.02335436695159
 20
384.88062309214052
 30
0.0
  0
VERTEX
  5
CFF
  8
DATA
  6
CONTINUOUS
 62
     7
 10
123.6293088832963
 20
385.1840114456428
 30
0.0
  0
SEQEND
  5
D00
  8
DATA
  6
CONTINUOUS
 62
     7
  0
POLYLINE
  5
392
  8
DATA
  6
CONTINUOUS
 62
     7
 66
     1
 10
0.0
 20
0.0
 30
0.0
  0
VERTEX
  5
D01
  8
DATA
  6
CONTINUOUS
 62
     7
 10
121.20671245343151
 20
386.69603338402419
 30
0.0
  0
VERTEX
  5
D02
  8
DATA
  6
CONTINUOUS
 62
     7
 10
121.8126702984835
 20
386.69603338402419
 30
0.0
  0
VERTEX
  5
D03
  8
DATA
  6
CONTINUOUS
 62
     7
 10
122.41739652189951
 20
386.9990123065503
 30
0.0
  0
VERTEX
  5
D04
  8
DATA
  6
CONTINUOUS
 62
     7
 10
123.3251016678411
 20
387.30199122907618
 30
0.0
  0
VERTEX
  5
D05
  8
DATA
  6
CONTINUOUS
 62
     7
 10
123.9310595128931
 20
387.6049701516024
 30
0.0
  0
SEQEND
  5
D06
  8
DATA
  6
CONTINUOUS
 62
     7
  0
POLYLINE
  5
39A
  8
DATA
  6
CONTINUOUS
 62
     7
 66
     1
 10
0.0
 20
0.0
 30
0.0
  0
VERTEX
  5
D07
  8
DATA
  6
CONTINUOUS
 62
     7
 10
144.49704868699479
 20
279.5868648726821
 30
0.0
  0
VERTEX
  5
D08
  8
DATA
  6
CONTINUOUS
 62
     7
 10
145.06646280249831
 20
279.79411466169643
 30
0.0
  0
VERTEX
  5
D09
  8
DATA
  6
CONTINUOUS
 62
     7
 10
145.5310946777301
 20
280.28565026905312
 30
0.0
  0
VERTEX
  5
D0A
  8
DATA
  6
CONTINUOUS
 62
     7
 10
146.28243343529491
 20
280.8789173187991
 30
0.0
  0
VERTEX
  5
D0B
  8
DATA
  6
CONTINUOUS
 62
     7
 10
147.21285453152331
 20
281.86240977292152
 30
0.0
  0
VERTEX
  5
D0C
  8
DATA
  6
CONTINUOUS
 62
     7
 10
147.4837153444762
 20
282.44430231054781
 30
0.0
  0
SEQEND
  5
D0D
  8
DATA
  6
CONTINUOUS
 62
     7
  0
POLYLINE
  5
3A3
  8
DATA
  6
CONTINUOUS
 62
     7
 66
     1
 10
0.0
 20
0.0
 30
0.0
 70
   128
  0
VERTEX
  5
D0E
  8
DATA
  6
CONTINUOUS
 62
     7
 10
142.63484601902039
 20
281.16342124679579
 30
0.0
  0
VERTEX
  5
D0F
  8
DATA
  6
CONTINUOUS
 62
     7
 10
143.7725169042628
 20
281.5774995854153
 30
0.0
  0
VERTEX
  5
D10
  8
DATA
  6
CONTINUOUS
 62
     7
 10
144.52301318301031
 20
282.17308132668802
 30
0.0
  0
VERTEX
  5
D11
  8
DATA
  6
CONTINUOUS
 62
     7
 10
144.987645058243
 20
282.66461693404477
 30
0.0
  0
VERTEX
  5
D12
  8
DATA
  6
CONTINUOUS
 62
     7
 10
145.7389838158069
 20
283.25788398379052
 30
0.0
  0
VERTEX
  5
D13
  8
DATA
  6
CONTINUOUS
 62
     7
 10
146.2036156910396
 20
283.7494195911475
 30
0.0
  0
VERTEX
  5
D14
  8
DATA
  6
CONTINUOUS
 62
     7
 10
146.3846978542843
 20
284.13775154340618
 30
0.0
  0
VERTEX
  5
D15
  8
DATA
  6
CONTINUOUS
 62
     7
 10
146.17744806527031
 20
284.70716565890888
 30
0.0
  0
SEQEND
  5
D16
  8
DATA
  6
CONTINUOUS
 62
     7
  0
POLYLINE
  5
3AD
  8
DATA
  6
CONTINUOUS
 62
     7
 66
     1
 10
0.0
 20
0.0
 30
0.0
  0
VERTEX
  5
D17
  8
DATA
  6
CONTINUOUS
 62
     7
 10
135.73492127504619
 20
299.52431721106421
 30
0.0
  0
VERTEX
  5
D18
  8
DATA
  6
CONTINUOUS
 62
     7
 10
136.94683696515031
 20
299.52431721106421
 30
0.0
  0
VERTEX
  5
D19
  8
DATA
  6
CONTINUOUS
 62
     7
 10
137.85454211109271
 20
299.82729613359021
 30
0.0
  0
VERTEX
  5
D1A
  8
DATA
  6
CONTINUOUS
 62
     7
 10
138.4592683345079
 20
300.1302750561162
 30
0.0
  0
VERTEX
  5
D1B
  8
DATA
  6
CONTINUOUS
 62
     7
 10
139.36820510208631
 20
300.4332539786422
 30
0.0
  0
VERTEX
  5
D1C
  8
DATA
  6
CONTINUOUS
 62
     7
 10
139.97293132550149
 20
300.73623290116819
 30
0.0
  0
VERTEX
  5
D1D
  8
DATA
  6
CONTINUOUS
 62
     7
 10
140.27591024802791
 20
301.03674858042177
 30
0.0
  0
VERTEX
  5
D1E
  8
DATA
  6
CONTINUOUS
 62
     7
 10
140.27591024802791
 20
301.33972750294771
 30
0.0
  0
SEQEND
  5
D1F
  8
DATA
  6
CONTINUOUS
 62
     7
  0
POLYLINE
  5
3B8
  8
DATA
  6
CONTINUOUS
 62
     7
 66
     1
 10
0.0
 20
0.0
 30
0.0
  0
VERTEX
  5
D20
  8
DATA
  6
CONTINUOUS
 62
     7
 10
135.4331739741566
 20
301.64270642547382
 30
0.0
  0
VERTEX
  5
D21
  8
DATA
  6
CONTINUOUS
 62
     7
 10
136.6438580426246
 20
301.64270642547382
 30
0.0
  0
VERTEX
  5
D22
  8
DATA
  6
CONTINUOUS
 62
     7
 10
137.55156318856621
 20
301.94568534799993
 30
0.0
  0
VERTEX
  5
D23
  8
DATA
  6
CONTINUOUS
 62
     7
 10
138.15752103361831
 20
302.24866427052581
 30
0.0
  0
VERTEX
  5
D24
  8
DATA
  6
CONTINUOUS
 62
     7
 10
139.06522617955989
 20
302.5516431930518
 30
0.0
  0
VERTEX
  5
D25
  8
DATA
  6
CONTINUOUS
 62
     7
 10
139.6711840246119
 20
302.8546221155778
 30
0.0
  0
VERTEX
  5
D26
  8
DATA
  6
CONTINUOUS
 62
     7
 10
139.97293132550149
 20
303.15760103810402
 30
0.0
  0
VERTEX
  5
D27
  8
DATA
  6
CONTINUOUS
 62
     7
 10
139.97293132550149
 20
303.45811671735748
 30
0.0
  0
SEQEND
  5
D28
  8
DATA
  6
CONTINUOUS
 62
     7
  0
POLYLINE
  5
3C3
  8
DATA
  6
CONTINUOUS
 62
     7
 66
     1
 10
0.0
 20
0.0
 30
0.0
  0
VERTEX
  5
D29
  8
DATA
  6
CONTINUOUS
 62
     7
 10
135.13019505163021
 20
303.76109563988348
 30
0.0
  0
VERTEX
  5
D2A
  8
DATA
  6
CONTINUOUS
 62
     7
 10
135.73492127504619
 20
303.76109563988348
 30
0.0
  0
VERTEX
  5
D2B
  8
DATA
  6
CONTINUOUS
 62
     7
 10
136.34087912009821
 20
304.06407456240959
 30
0.0
  0
VERTEX
  5
D2C
  8
DATA
  6
CONTINUOUS
 62
     7
 10
136.94683696515031
 20
304.06407456240959
 30
0.0
  0
VERTEX
  5
D2D
  8
DATA
  6
CONTINUOUS
 62
     7
 10
138.76224725703429
 20
304.67003240746169
 30
0.0
  0
VERTEX
  5
D2E
  8
DATA
  6
CONTINUOUS
 62
     7
 10
139.6758943574047
 20
305.58275006012121
 30
0.0
  0
SEQEND
  5
D2F
  8
DATA
  6
CONTINUOUS
 62
     7
  0
POLYLINE
  5
3CC
  8
DATA
  6
CONTINUOUS
 62
     7
 66
     1
 10
0.0
 20
0.0
 30
0.0
  0
VERTEX
  5
D30
  8
DATA
  6
CONTINUOUS
 62
     7
 10
134.5254688282142
 20
305.87948485429331
 30
0.0
  0
VERTEX
  5
D31
  8
DATA
  6
CONTINUOUS
 62
     7
 10
135.4331739741566
 20
305.87948485429331
 30
0.0
  0
VERTEX
  5
D32
  8
DATA
  6
CONTINUOUS
 62
     7
 10
136.03790019757179
 20
306.1824637768193
 30
0.0
  0
VERTEX
  5
D33
  8
DATA
  6
CONTINUOUS
 62
     7
 10
136.6438580426246
 20
306.1824637768193
 30
0.0
  0
VERTEX
  5
D34
  8
DATA
  6
CONTINUOUS
 62
     7
 10
137.55156318856621
 20
306.4854426993453
 30
0.0
  0
VERTEX
  5
D35
  8
DATA
  6
CONTINUOUS
 62
     7
 10
138.76224725703429
 20
307.09140054439752
 30
0.0
  0
VERTEX
  5
D36
  8
DATA
  6
CONTINUOUS
 62
     7
 10
139.06522617955989
 20
307.69735838944962
 30
0.0
  0
SEQEND
  5
D37
  8
DATA
  6
CONTINUOUS
 62
     7
  0
POLYLINE
  5
3D6
  8
DATA
  6
CONTINUOUS
 62
     7
 66
     1
 10
0.0
 20
0.0
 30
0.0
  0
VERTEX
  5
D38
  8
DATA
  6
CONTINUOUS
 62
     7
 10
134.2224899056886
 20
308.00033731197561
 30
0.0
  0
VERTEX
  5
D39
  8
DATA
  6
CONTINUOUS
 62
     7
 10
134.8272161291045
 20
308.00033731197561
 30
0.0
  0
VERTEX
  5
D3A
  8
DATA
  6
CONTINUOUS
 62
     7
 10
135.73492127504619
 20
308.30331623450161
 30
0.0
  0
VERTEX
  5
D3B
  8
DATA
  6
CONTINUOUS
 62
     7
 10
136.34087912009821
 20
308.30331623450161
 30
0.0
  0
VERTEX
  5
D3C
  8
DATA
  6
CONTINUOUS
 62
     7
 10
137.24858426603981
 20
308.60383191375519
 30
0.0
  0
VERTEX
  5
D3D
  8
DATA
  6
CONTINUOUS
 62
     7
 10
137.85454211109271
 20
308.90681083628118
 30
0.0
  0
VERTEX
  5
D3E
  8
DATA
  6
CONTINUOUS
 62
     7
 10
138.76224725703429
 20
309.81543938522009
 30
0.0
  0
SEQEND
  5
D3F
  8
DATA
  6
CONTINUOUS
 62
     7
  0
POLYLINE
  5
3E0
  8
DATA
  6
CONTINUOUS
 62
     7
 66
     1
 10
0.0
 20
0.0
 30
0.0
  0
VERTEX
  5
D40
  8
DATA
  6
CONTINUOUS
 62
     7
 10
133.91951098316301
 20
310.11872652638522
 30
0.0
  0
VERTEX
  5
D41
  8
DATA
  6
CONTINUOUS
 62
     7
 10
134.5254688282142
 20
310.11872652638522
 30
0.0
  0
VERTEX
  5
D42
  8
DATA
  6
CONTINUOUS
 62
     7
 10
135.4331739741566
 20
310.42170544891121
 30
0.0
  0
VERTEX
  5
D43
  8
DATA
  6
CONTINUOUS
 62
     7
 10
136.03790019757179
 20
310.72468437143721
 30
0.0
  0
VERTEX
  5
D44
  8
DATA
  6
CONTINUOUS
 62
     7
 10
136.94683696515031
 20
310.72468437143721
 30
0.0
  0
VERTEX
  5
D45
  8
DATA
  6
CONTINUOUS
 62
     7
 10
137.55156318856621
 20
311.32817897321678
 30
0.0
  0
VERTEX
  5
D46
  8
DATA
  6
CONTINUOUS
 62
     7
 10
138.15752103361831
 20
311.63115789574277
 30
0.0
  0
VERTEX
  5
D47
  8
DATA
  6
CONTINUOUS
 62
     7
 10
138.4592683345079
 20
311.93413681826883
 30
0.0
  0
VERTEX
  5
D48
  8
DATA
  6
CONTINUOUS
 62
     7
 10
138.4592683345079
 20
312.23711574079499
 30
0.0
  0
SEQEND
  5
D49
  8
DATA
  6
CONTINUOUS
 62
     7
  0
POLYLINE
  5
3EC
  8
DATA
  6
CONTINUOUS
 62
     7
 66
     1
 10
0.0
 20
0.0
 30
0.0
  0
VERTEX
  5
D4A
  8
DATA
  6
CONTINUOUS
 62
     7
 10
133.31355313811011
 20
312.23711574079499
 30
0.0
  0
VERTEX
  5
D4B
  8
DATA
  6
CONTINUOUS
 62
     7
 10
134.2224899056886
 20
312.23711574079499
 30
0.0
  0
VERTEX
  5
D4C
  8
DATA
  6
CONTINUOUS
 62
     7
 10
134.8272161291045
 20
312.5400946633211
 30
0.0
  0
VERTEX
  5
D4D
  8
DATA
  6
CONTINUOUS
 62
     7
 10
136.6438580426246
 20
313.14605250837309
 30
0.0
  0
VERTEX
  5
D4E
  8
DATA
  6
CONTINUOUS
 62
     7
 10
137.85454211109271
 20
313.74954711015261
 30
0.0
  0
VERTEX
  5
D4F
  8
DATA
  6
CONTINUOUS
 62
     7
 10
138.15752103361831
 20
314.05252603267871
 30
0.0
  0
VERTEX
  5
D50
  8
DATA
  6
CONTINUOUS
 62
     7
 10
138.15752103361831
 20
314.35550495520459
 30
0.0
  0
SEQEND
  5
D51
  8
DATA
  6
CONTINUOUS
 62
     7
  0
POLYLINE
  5
3F6
  8
DATA
  6
CONTINUOUS
 62
     7
 66
     1
 10
0.0
 20
0.0
 30
0.0
  0
VERTEX
  5
D52
  8
DATA
  6
CONTINUOUS
 62
     7
 10
133.01180583722061
 20
314.35550495520471
 30
0.0
  0
VERTEX
  5
D53
  8
DATA
  6
CONTINUOUS
 62
     7
 10
133.31355313811011
 20
314.35550495520471
 30
0.0
  0
VERTEX
  5
D54
  8
DATA
  6
CONTINUOUS
 62
     7
 10
133.91951098316301
 20
314.65848387773087
 30
0.0
  0
VERTEX
  5
D55
  8
DATA
  6
CONTINUOUS
 62
     7
 10
134.5254688282142
 20
314.65848387773087
 30
0.0
  0
VERTEX
  5
D56
  8
DATA
  6
CONTINUOUS
 62
     7
 10
136.34087912009821
 20
315.26444172278292
 30
0.0
  0
VERTEX
  5
D57
  8
DATA
  6
CONTINUOUS
 62
     7
 10
136.94683696515031
 20
315.56742064530903
 30
0.0
  0
VERTEX
  5
D58
  8
DATA
  6
CONTINUOUS
 62
     7
 10
137.55156318856621
 20
316.17091524708849
 30
0.0
  0
VERTEX
  5
D59
  8
DATA
  6
CONTINUOUS
 62
     7
 10
137.55156318856621
 20
316.47389416961448
 30
0.0
  0
SEQEND
  5
D5A
  8
DATA
  6
CONTINUOUS
 62
     7
  0
POLYLINE
  5
401
  8
DATA
  6
CONTINUOUS
 62
     7
 66
     1
 10
0.0
 20
0.0
 30
0.0
  0
VERTEX
  5
D5B
  8
DATA
  6
CONTINUOUS
 62
     7
 10
132.70882691469501
 20
316.47389416961448
 30
0.0
  0
VERTEX
  5
D5C
  8
DATA
  6
CONTINUOUS
 62
     7
 10
133.01180583722061
 20
316.47389416961448
 30
0.0
  0
VERTEX
  5
D5D
  8
DATA
  6
CONTINUOUS
 62
     7
 10
133.61653206063659
 20
316.77687309214048
 30
0.0
  0
VERTEX
  5
D5E
  8
DATA
  6
CONTINUOUS
 62
     7
 10
134.2224899056886
 20
316.77687309214048
 30
0.0
  0
VERTEX
  5
D5F
  8
DATA
  6
CONTINUOUS
 62
     7
 10
135.13019505163021
 20
317.07985201466659
 30
0.0
  0
VERTEX
  5
D60
  8
DATA
  6
CONTINUOUS
 62
     7
 10
135.73492127504619
 20
317.38283093719258
 30
0.0
  0
VERTEX
  5
D61
  8
DATA
  6
CONTINUOUS
 62
     7
 10
136.6438580426246
 20
317.68580985971857
 30
0.0
  0
VERTEX
  5
D62
  8
DATA
  6
CONTINUOUS
 62
     7
 10
137.24858426603981
 20
318.29176770477062
 30
0.0
  0
VERTEX
  5
D63
  8
DATA
  6
CONTINUOUS
 62
     7
 10
137.24858426603981
 20
318.5922833840242
 30
0.0
  0
SEQEND
  5
D64
  8
DATA
  6
CONTINUOUS
 62
     7
  0
POLYLINE
  5
40D
  8
DATA
  6
CONTINUOUS
 62
     7
 66
     1
 10
0.0
 20
0.0
 30
0.0
  0
VERTEX
  5
D65
  8
DATA
  6
CONTINUOUS
 62
     7
 10
132.4058479921685
 20
318.59228338402409
 30
0.0
  0
VERTEX
  5
D66
  8
DATA
  6
CONTINUOUS
 62
     7
 10
132.70882691469501
 20
318.59228338402409
 30
0.0
  0
VERTEX
  5
D67
  8
DATA
  6
CONTINUOUS
 62
     7
 10
133.31355313811011
 20
318.89526230655019
 30
0.0
  0
VERTEX
  5
D68
  8
DATA
  6
CONTINUOUS
 62
     7
 10
133.91951098316301
 20
318.89526230655019
 30
0.0
  0
VERTEX
  5
D69
  8
DATA
  6
CONTINUOUS
 62
     7
 10
134.8272161291045
 20
319.19824122907619
 30
0.0
  0
VERTEX
  5
D6A
  8
DATA
  6
CONTINUOUS
 62
     7
 10
135.4331739741566
 20
319.50122015160218
 30
0.0
  0
VERTEX
  5
D6B
  8
DATA
  6
CONTINUOUS
 62
     7
 10
136.34087912009821
 20
319.80419907412818
 30
0.0
  0
VERTEX
  5
D6C
  8
DATA
  6
CONTINUOUS
 62
     7
 10
136.94683696515031
 20
320.41015691918039
 30
0.0
  0
VERTEX
  5
D6D
  8
DATA
  6
CONTINUOUS
 62
     7
 10
136.94683696515031
 20
320.7131358417065
 30
0.0
  0
SEQEND
  5
D6E
  8
DATA
  6
CONTINUOUS
 62
     7
  0
POLYLINE
  5
419
  8
DATA
  6
CONTINUOUS
 62
     7
 66
     1
 10
0.0
 20
0.0
 30
0.0
  0
VERTEX
  5
D6F
  8
DATA
  6
CONTINUOUS
 62
     7
 10
131.80112176875249
 20
321.0136515209598
 30
0.0
  0
VERTEX
  5
D70
  8
DATA
  6
CONTINUOUS
 62
     7
 10
132.10410069127889
 20
320.7131358417065
 30
0.0
  0
VERTEX
  5
D71
  8
DATA
  6
CONTINUOUS
 62
     7
 10
132.4058479921685
 20
320.7131358417065
 30
0.0
  0
VERTEX
  5
D72
  8
DATA
  6
CONTINUOUS
 62
     7
 10
133.01180583722061
 20
321.0136515209598
 30
0.0
  0
VERTEX
  5
D73
  8
DATA
  6
CONTINUOUS
 62
     7
 10
133.61653206063659
 20
321.0136515209598
 30
0.0
  0
VERTEX
  5
D74
  8
DATA
  6
CONTINUOUS
 62
     7
 10
134.5254688282142
 20
321.31663044348602
 30
0.0
  0
VERTEX
  5
D75
  8
DATA
  6
CONTINUOUS
 62
     7
 10
136.34087912009821
 20
322.22556721106412
 30
0.0
  0
VERTEX
  5
D76
  8
DATA
  6
CONTINUOUS
 62
     7
 10
136.6438580426246
 20
322.83152505611639
 30
0.0
  0
SEQEND
  5
D77
  8
DATA
  6
CONTINUOUS
 62
     7
  0
POLYLINE
  5
424
  8
DATA
  6
CONTINUOUS
 62
     7
 66
     1
 10
0.0
 20
0.0
 30
0.0
  0
VERTEX
  5
D78
  8
DATA
  6
CONTINUOUS
 62
     7
 10
131.4981428462269
 20
323.13450397864239
 30
0.0
  0
VERTEX
  5
D79
  8
DATA
  6
CONTINUOUS
 62
     7
 10
133.31355313811011
 20
323.13450397864239
 30
0.0
  0
VERTEX
  5
D7A
  8
DATA
  6
CONTINUOUS
 62
     7
 10
134.2224899056886
 20
323.43748290116832
 30
0.0
  0
VERTEX
  5
D7B
  8
DATA
  6
CONTINUOUS
 62
     7
 10
135.4331739741566
 20
324.0409775029479
 30
0.0
  0
VERTEX
  5
D7C
  8
DATA
  6
CONTINUOUS
 62
     7
 10
136.03790019757179
 20
324.64693534799989
 30
0.0
  0
VERTEX
  5
D7D
  8
DATA
  6
CONTINUOUS
 62
     7
 10
136.03790019757179
 20
324.94991427052588
 30
0.0
  0
SEQEND
  5
D7E
  8
DATA
  6
CONTINUOUS
 62
     7
  0
POLYLINE
  5
42D
  8
DATA
  6
CONTINUOUS
 62
     7
 66
     1
 10
0.0
 20
0.0
 30
0.0
  0
VERTEX
  5
D7F
  8
DATA
  6
CONTINUOUS
 62
     7
 10
131.19516392370051
 20
325.25289319305188
 30
0.0
  0
VERTEX
  5
D80
  8
DATA
  6
CONTINUOUS
 62
     7
 10
132.10410069127889
 20
325.25289319305188
 30
0.0
  0
VERTEX
  5
D81
  8
DATA
  6
CONTINUOUS
 62
     7
 10
133.01180583722061
 20
325.55587211557793
 30
0.0
  0
VERTEX
  5
D82
  8
DATA
  6
CONTINUOUS
 62
     7
 10
133.61653206063659
 20
325.55587211557793
 30
0.0
  0
VERTEX
  5
D83
  8
DATA
  6
CONTINUOUS
 62
     7
 10
134.5254688282142
 20
325.85885103810398
 30
0.0
  0
VERTEX
  5
D84
  8
DATA
  6
CONTINUOUS
 62
     7
 10
135.13019505163021
 20
326.46234563988349
 30
0.0
  0
VERTEX
  5
D85
  8
DATA
  6
CONTINUOUS
 62
     7
 10
135.73492127504619
 20
326.76532456240949
 30
0.0
  0
VERTEX
  5
D86
  8
DATA
  6
CONTINUOUS
 62
     7
 10
135.73492127504619
 20
327.0683034849356
 30
0.0
  0
SEQEND
  5
D87
  8
DATA
  6
CONTINUOUS
 62
     7
  0
POLYLINE
  5
438
  8
DATA
  6
CONTINUOUS
 62
     7
 66
     1
 10
0.0
 20
0.0
 30
0.0
  0
VERTEX
  5
D88
  8
DATA
  6
CONTINUOUS
 62
     7
 10
130.89218500117491
 20
327.37128240746148
 30
0.0
  0
VERTEX
  5
D89
  8
DATA
  6
CONTINUOUS
 62
     7
 10
131.80112176875249
 20
327.37128240746148
 30
0.0
  0
VERTEX
  5
D8A
  8
DATA
  6
CONTINUOUS
 62
     7
 10
132.70882691469501
 20
327.6742613299877
 30
0.0
  0
VERTEX
  5
D8B
  8
DATA
  6
CONTINUOUS
 62
     7
 10
133.31355313811011
 20
327.97724025251358
 30
0.0
  0
VERTEX
  5
D8C
  8
DATA
  6
CONTINUOUS
 62
     7
 10
134.2224899056886
 20
328.2802191750398
 30
0.0
  0
VERTEX
  5
D8D
  8
DATA
  6
CONTINUOUS
 62
     7
 10
134.8272161291045
 20
328.5807348542931
 30
0.0
  0
VERTEX
  5
D8E
  8
DATA
  6
CONTINUOUS
 62
     7
 10
135.43303697260899
 20
329.1873777070835
 30
0.0
  0
SEQEND
  5
D8F
  8
DATA
  6
CONTINUOUS
 62
     7
  0
POLYLINE
  5
442
  8
DATA
  6
CONTINUOUS
 62
     7
 66
     1
 10
0.0
 20
0.0
 30
0.0
  0
VERTEX
  5
D90
  8
DATA
  6
CONTINUOUS
 62
     7
 10
130.2874587777589
 20
329.48967162187148
 30
0.0
  0
VERTEX
  5
D91
  8
DATA
  6
CONTINUOUS
 62
     7
 10
131.4981428462269
 20
329.48967162187148
 30
0.0
  0
VERTEX
  5
D92
  8
DATA
  6
CONTINUOUS
 62
     7
 10
132.4058479921685
 20
329.79265054439742
 30
0.0
  0
VERTEX
  5
D93
  8
DATA
  6
CONTINUOUS
 62
     7
 10
133.01180583722061
 20
330.09562946692353
 30
0.0
  0
VERTEX
  5
D94
  8
DATA
  6
CONTINUOUS
 62
     7
 10
133.91951098316301
 20
330.39860838944969
 30
0.0
  0
VERTEX
  5
D95
  8
DATA
  6
CONTINUOUS
 62
     7
 10
134.5254688282142
 20
330.70158731197569
 30
0.0
  0
VERTEX
  5
D96
  8
DATA
  6
CONTINUOUS
 62
     7
 10
135.13012651986759
 20
331.30542457256797
 30
0.0
  0
SEQEND
  5
D97
  8
DATA
  6
CONTINUOUS
 62
     7
  0
POLYLINE
  5
44C
  8
DATA
  6
CONTINUOUS
 62
     7
 66
     1
 10
0.0
 20
0.0
 30
0.0
  0
VERTEX
  5
D98
  8
DATA
  6
CONTINUOUS
 62
     7
 10
129.98447985523319
 20
331.6080608362812
 30
0.0
  0
VERTEX
  5
D99
  8
DATA
  6
CONTINUOUS
 62
     7
 10
131.19516392370051
 20
331.6080608362812
 30
0.0
  0
VERTEX
  5
D9A
  8
DATA
  6
CONTINUOUS
 62
     7
 10
132.10410069127889
 20
331.91103975880719
 30
0.0
  0
VERTEX
  5
D9B
  8
DATA
  6
CONTINUOUS
 62
     7
 10
132.70882691469501
 20
332.2140186813333
 30
0.0
  0
VERTEX
  5
D9C
  8
DATA
  6
CONTINUOUS
 62
     7
 10
133.61653206063659
 20
332.51699760385918
 30
0.0
  0
VERTEX
  5
D9D
  8
DATA
  6
CONTINUOUS
 62
     7
 10
134.2224899056886
 20
332.81997652638518
 30
0.0
  0
VERTEX
  5
D9E
  8
DATA
  6
CONTINUOUS
 62
     7
 10
134.5254688282142
 20
333.12295544891123
 30
0.0
  0
VERTEX
  5
D9F
  8
DATA
  6
CONTINUOUS
 62
     7
 10
134.5254688282142
 20
333.42593437143728
 30
0.0
  0
SEQEND
  5
DA0
  8
DATA
  6
CONTINUOUS
 62
     7
  0
POLYLINE
  5
457
  8
DATA
  6
CONTINUOUS
 62
     7
 66
     1
 10
0.0
 20
0.0
 30
0.0
  0
VERTEX
  5
DA1
  8
DATA
  6
CONTINUOUS
 62
     7
 10
129.68150093270691
 20
333.72645005069091
 30
0.0
  0
VERTEX
  5
DA2
  8
DATA
  6
CONTINUOUS
 62
     7
 10
130.89218500117491
 20
333.72645005069091
 30
0.0
  0
VERTEX
  5
DA3
  8
DATA
  6
CONTINUOUS
 62
     7
 10
131.4981428462269
 20
334.02942897321691
 30
0.0
  0
VERTEX
  5
DA4
  8
DATA
  6
CONTINUOUS
 62
     7
 10
133.31355313811011
 20
334.6353868182689
 30
0.0
  0
VERTEX
  5
DA5
  8
DATA
  6
CONTINUOUS
 62
     7
 10
133.91951098316301
 20
334.93836574079489
 30
0.0
  0
VERTEX
  5
DA6
  8
DATA
  6
CONTINUOUS
 62
     7
 10
134.2224899056886
 20
335.24134466332089
 30
0.0
  0
VERTEX
  5
DA7
  8
DATA
  6
CONTINUOUS
 62
     7
 10
134.2224899056886
 20
335.544323585847
 30
0.0
  0
SEQEND
  5
DA8
  8
DATA
  6
CONTINUOUS
 62
     7
  0
POLYLINE
  5
461
  8
DATA
  6
CONTINUOUS
 62
     7
 66
     1
 10
0.0
 20
0.0
 30
0.0
  0
VERTEX
  5
DA9
  8
DATA
  6
CONTINUOUS
 62
     7
 10
129.37975363181729
 20
335.84730250837288
 30
0.0
  0
VERTEX
  5
DAA
  8
DATA
  6
CONTINUOUS
 62
     7
 10
130.5904377002845
 20
335.84730250837288
 30
0.0
  0
VERTEX
  5
DAB
  8
DATA
  6
CONTINUOUS
 62
     7
 10
131.19516392370051
 20
336.14781818762651
 30
0.0
  0
VERTEX
  5
DAC
  8
DATA
  6
CONTINUOUS
 62
     7
 10
132.10410069127889
 20
336.45079711015251
 30
0.0
  0
VERTEX
  5
DAD
  8
DATA
  6
CONTINUOUS
 62
     7
 10
133.31355313811011
 20
337.05675495520472
 30
0.0
  0
VERTEX
  5
DAE
  8
DATA
  6
CONTINUOUS
 62
     7
 10
133.91951098316289
 20
337.66271280025728
 30
0.0
  0
SEQEND
  5
DAF
  8
DATA
  6
CONTINUOUS
 62
     7
  0
POLYLINE
  5
46A
  8
DATA
  6
CONTINUOUS
 62
     7
 66
     1
 10
0.0
 20
0.0
 30
0.0
 70
   128
  0
VERTEX
  5
DB0
  8
DATA
  6
CONTINUOUS
 62
     7
 10
128.77379578676531
 20
337.96569172278282
 30
0.0
  0
VERTEX
  5
DB1
  8
DATA
  6
CONTINUOUS
 62
     7
 10
129.37975363181729
 20
337.96569172278282
 30
0.0
  0
VERTEX
  5
DB2
  8
DATA
  6
CONTINUOUS
 62
     7
 10
130.2874587777589
 20
338.26867064530899
 30
0.0
  0
VERTEX
  5
DB3
  8
DATA
  6
CONTINUOUS
 62
     7
 10
130.89218500117491
 20
338.26867064530899
 30
0.0
  0
VERTEX
  5
DB4
  8
DATA
  6
CONTINUOUS
 62
     7
 10
131.80112176875249
 20
338.57164956783498
 30
0.0
  0
VERTEX
  5
DB5
  8
DATA
  6
CONTINUOUS
 62
     7
 10
133.01180583722061
 20
339.17514416961438
 30
0.0
  0
VERTEX
  5
DB6
  8
DATA
  6
CONTINUOUS
 62
     7
 10
133.31355313811011
 20
339.47812309214061
 30
0.0
  0
VERTEX
  5
DB7
  8
DATA
  6
CONTINUOUS
 62
     7
 10
133.31355313811011
 20
340.0840809371926
 30
0.0
  0
SEQEND
  5
DB8
  8
DATA
  6
CONTINUOUS
 62
     7
  0
POLYLINE
  5
474
  8
DATA
  6
CONTINUOUS
 62
     7
 66
     1
 10
0.0
 20
0.0
 30
0.0
  0
VERTEX
  5
DB9
  8
DATA
  6
CONTINUOUS
 62
     7
 10
128.47081686423891
 20
340.0840809371926
 30
0.0
  0
VERTEX
  5
DBA
  8
DATA
  6
CONTINUOUS
 62
     7
 10
129.0767747092909
 20
340.0840809371926
 30
0.0
  0
VERTEX
  5
DBB
  8
DATA
  6
CONTINUOUS
 62
     7
 10
129.98447985523319
 20
340.38705985971859
 30
0.0
  0
VERTEX
  5
DBC
  8
DATA
  6
CONTINUOUS
 62
     7
 10
130.5904377002845
 20
340.38705985971859
 30
0.0
  0
VERTEX
  5
DBD
  8
DATA
  6
CONTINUOUS
 62
     7
 10
131.4981428462269
 20
340.69003878224459
 30
0.0
  0
VERTEX
  5
DBE
  8
DATA
  6
CONTINUOUS
 62
     7
 10
132.10410069127889
 20
340.99301770477069
 30
0.0
  0
VERTEX
  5
DBF
  8
DATA
  6
CONTINUOUS
 62
     7
 10
133.01160056694781
 20
341.90051758043978
 30
0.0
  0
SEQEND
  5
DC0
  8
DATA
  6
CONTINUOUS
 62
     7
  0
POLYLINE
  5
47E
  8
DATA
  6
CONTINUOUS
 62
     7
 66
     1
 10
0.0
 20
0.0
 30
0.0
  0
VERTEX
  5
DC1
  8
DATA
  6
CONTINUOUS
 62
     7
 10
128.16783794171241
 20
342.20247015160231
 30
0.0
  0
VERTEX
  5
DC2
  8
DATA
  6
CONTINUOUS
 62
     7
 10
128.77379578676531
 20
342.20247015160231
 30
0.0
  0
VERTEX
  5
DC3
  8
DATA
  6
CONTINUOUS
 62
     7
 10
129.37975363181729
 20
342.50544907412831
 30
0.0
  0
VERTEX
  5
DC4
  8
DATA
  6
CONTINUOUS
 62
     7
 10
130.2874587777589
 20
342.50544907412831
 30
0.0
  0
VERTEX
  5
DC5
  8
DATA
  6
CONTINUOUS
 62
     7
 10
131.19516392370051
 20
342.8084279966543
 30
0.0
  0
VERTEX
  5
DC6
  8
DATA
  6
CONTINUOUS
 62
     7
 10
131.80112176875249
 20
343.1114069191803
 30
0.0
  0
VERTEX
  5
DC7
  8
DATA
  6
CONTINUOUS
 62
     7
 10
132.70882691469501
 20
344.01788044348581
 30
0.0
  0
VERTEX
  5
DC8
  8
DATA
  6
CONTINUOUS
 62
     7
 10
132.70882691469501
 20
344.3208593660118
 30
0.0
  0
SEQEND
  5
DC9
  8
DATA
  6
CONTINUOUS
 62
     7
  0
POLYLINE
  5
489
  8
DATA
  6
CONTINUOUS
 62
     7
 66
     1
 10
0.0
 20
0.0
 30
0.0
 70
   128
  0
VERTEX
  5
DCA
  8
DATA
  6
CONTINUOUS
 62
     7
 10
127.8660906408228
 20
344.32085936601197
 30
0.0
  0
VERTEX
  5
DCB
  8
DATA
  6
CONTINUOUS
 62
     7
 10
128.47081686423891
 20
344.32085936601197
 30
0.0
  0
VERTEX
  5
DCC
  8
DATA
  6
CONTINUOUS
 62
     7
 10
129.0767747092909
 20
344.62383828853791
 30
0.0
  0
VERTEX
  5
DCD
  8
DATA
  6
CONTINUOUS
 62
     7
 10
130.89218500117491
 20
345.22979613359018
 30
0.0
  0
VERTEX
  5
DCE
  8
DATA
  6
CONTINUOUS
 62
     7
 10
132.10410069127889
 20
345.83575397864217
 30
0.0
  0
VERTEX
  5
DCF
  8
DATA
  6
CONTINUOUS
 62
     7
 10
132.4058479921685
 20
346.13873290116828
 30
0.0
  0
VERTEX
  5
DD0
  8
DATA
  6
CONTINUOUS
 62
     7
 10
132.4058479921685
 20
346.74222750294791
 30
0.0
  0
SEQEND
  5
DD1
  8
DATA
  6
CONTINUOUS
 62
     7
  0
POLYLINE
  5
492
  8
DATA
  6
CONTINUOUS
 62
     7
 66
     1
 10
0.0
 20
0.0
 30
0.0
 70
   128
  0
VERTEX
  5
DD2
  8
DATA
  6
CONTINUOUS
 62
     7
 10
127.2601327957708
 20
346.43924858042169
 30
0.0
  0
VERTEX
  5
DD3
  8
DATA
  6
CONTINUOUS
 62
     7
 10
128.16783794171241
 20
346.43924858042169
 30
0.0
  0
VERTEX
  5
DD4
  8
DATA
  6
CONTINUOUS
 62
     7
 10
128.77379578676531
 20
346.74222750294791
 30
0.0
  0
VERTEX
  5
DD5
  8
DATA
  6
CONTINUOUS
 62
     7
 10
129.68150093270691
 20
347.04520642547379
 30
0.0
  0
VERTEX
  5
DD6
  8
DATA
  6
CONTINUOUS
 62
     7
 10
130.2874587777589
 20
347.34818534800002
 30
0.0
  0
VERTEX
  5
DD7
  8
DATA
  6
CONTINUOUS
 62
     7
 10
131.19516392370051
 20
347.65116427052601
 30
0.0
  0
VERTEX
  5
DD8
  8
DATA
  6
CONTINUOUS
 62
     7
 10
131.80112176875249
 20
348.257122115578
 30
0.0
  0
VERTEX
  5
DD9
  8
DATA
  6
CONTINUOUS
 62
     7
 10
131.80112176875249
 20
348.86061671735757
 30
0.0
  0
SEQEND
  5
DDA
  8
DATA
  6
CONTINUOUS
 62
     7
  0
POLYLINE
  5
49C
  8
DATA
  6
CONTINUOUS
 62
     7
 66
     1
 10
0.0
 20
0.0
 30
0.0
 70
   128
  0
VERTEX
  5
DDB
  8
DATA
  6
CONTINUOUS
 62
     7
 10
126.9583854948812
 20
348.56010103810411
 30
0.0
  0
VERTEX
  5
DDC
  8
DATA
  6
CONTINUOUS
 62
     7
 10
127.2601327957708
 20
348.56010103810411
 30
0.0
  0
VERTEX
  5
DDD
  8
DATA
  6
CONTINUOUS
 62
     7
 10
127.8660906408228
 20
348.86061671735757
 30
0.0
  0
VERTEX
  5
DDE
  8
DATA
  6
CONTINUOUS
 62
     7
 10
128.47081686423891
 20
348.86061671735757
 30
0.0
  0
VERTEX
  5
DDF
  8
DATA
  6
CONTINUOUS
 62
     7
 10
129.37975363181729
 20
349.16359563988362
 30
0.0
  0
VERTEX
  5
DE0
  8
DATA
  6
CONTINUOUS
 62
     7
 10
129.98447985523319
 20
349.46657456240962
 30
0.0
  0
VERTEX
  5
DE1
  8
DATA
  6
CONTINUOUS
 62
     7
 10
130.89218500117491
 20
349.76955348493561
 30
0.0
  0
VERTEX
  5
DE2
  8
DATA
  6
CONTINUOUS
 62
     7
 10
131.80112176875249
 20
350.6784902525136
 30
0.0
  0
SEQEND
  5
DE3
  8
DATA
  6
CONTINUOUS
 62
     7
  0
POLYLINE
  5
4A6
  8
DATA
  6
CONTINUOUS
 62
     7
 66
     1
 10
0.0
 20
0.0
 30
0.0
 70
   128
  0
VERTEX
  5
DE4
  8
DATA
  6
CONTINUOUS
 62
     7
 10
126.65540657235481
 20
350.6784902525136
 30
0.0
  0
VERTEX
  5
DE5
  8
DATA
  6
CONTINUOUS
 62
     7
 10
126.9583854948812
 20
350.6784902525136
 30
0.0
  0
VERTEX
  5
DE6
  8
DATA
  6
CONTINUOUS
 62
     7
 10
127.56311171829719
 20
350.98146917503959
 30
0.0
  0
VERTEX
  5
DE7
  8
DATA
  6
CONTINUOUS
 62
     7
 10
128.16783794171241
 20
350.98146917503959
 30
0.0
  0
VERTEX
  5
DE8
  8
DATA
  6
CONTINUOUS
 62
     7
 10
129.0767747092909
 20
351.28198485429323
 30
0.0
  0
VERTEX
  5
DE9
  8
DATA
  6
CONTINUOUS
 62
     7
 10
130.89218500117491
 20
352.19092162187133
 30
0.0
  0
VERTEX
  5
DEA
  8
DATA
  6
CONTINUOUS
 62
     7
 10
131.19516392370051
 20
352.49390054439732
 30
0.0
  0
VERTEX
  5
DEB
  8
DATA
  6
CONTINUOUS
 62
     7
 10
131.19516392370051
 20
353.09985838944948
 30
0.0
  0
SEQEND
  5
DEC
  8
DATA
  6
CONTINUOUS
 62
     7
  0
LINE
  5
4B0
  8
DATA
  6
CONTINUOUS
 62
     7
 10
126.3524276498292
 20
353.2000302825337
 30
0.0
 11
126.3524276498292
 21
352.7968794669236
 31
0.0
  0
POLYLINE
  5
4B1
  8
DATA
  6
CONTINUOUS
 62
     7
 66
     1
 10
0.0
 20
0.0
 30
0.0
  0
VERTEX
  5
DED
  8
DATA
  6
CONTINUOUS
 62
     7
 10
126.65540657235481
 20
352.7968794669236
 30
0.0
  0
VERTEX
  5
DEE
  8
DATA
  6
CONTINUOUS
 62
     7
 10
127.2601327957708
 20
353.09985838944948
 30
0.0
  0
VERTEX
  5
DEF
  8
DATA
  6
CONTINUOUS
 62
     7
 10
127.8660906408228
 20
353.09985838944948
 30
0.0
  0
VERTEX
  5
DF0
  8
DATA
  6
CONTINUOUS
 62
     7
 10
128.77379578676531
 20
353.40283731197547
 30
0.0
  0
VERTEX
  5
DF1
  8
DATA
  6
CONTINUOUS
 62
     7
 10
129.37975363181729
 20
353.7058162345017
 30
0.0
  0
VERTEX
  5
DF2
  8
DATA
  6
CONTINUOUS
 62
     7
 10
129.68150093270691
 20
354.00633191375522
 30
0.0
  0
VERTEX
  5
DF3
  8
DATA
  6
CONTINUOUS
 62
     7
 10
130.2874587777589
 20
354.00633191375522
 30
0.0
  0
SEQEND
  5
DF4
  8
DATA
  6
CONTINUOUS
 62
     7
  0
POLYLINE
  5
4BB
  8
DATA
  6
CONTINUOUS
 62
     7
 66
     1
 10
0.0
 20
0.0
 30
0.0
  0
VERTEX
  5
DF5
  8
DATA
  6
CONTINUOUS
 62
     7
 10
122.11441759937389
 20
376.40706623450171
 30
0.0
  0
VERTEX
  5
DF6
  8
DATA
  6
CONTINUOUS
 62
     7
 10
122.7203754444251
 20
376.40706623450171
 30
0.0
  0
VERTEX
  5
DF7
  8
DATA
  6
CONTINUOUS
 62
     7
 10
123.3251016678411
 20
376.70758191375512
 30
0.0
  0
VERTEX
  5
DF8
  8
DATA
  6
CONTINUOUS
 62
     7
 10
124.23403843541961
 20
376.70758191375512
 30
0.0
  0
VERTEX
  5
DF9
  8
DATA
  6
CONTINUOUS
 62
     7
 10
124.8387646588356
 20
377.01056083628112
 30
0.0
  0
VERTEX
  5
DFA
  8
DATA
  6
CONTINUOUS
 62
     7
 10
125.74646980477721
 20
377.61651868133322
 30
0.0
  0
VERTEX
  5
DFB
  8
DATA
  6
CONTINUOUS
 62
     7
 10
126.3524276498292
 20
377.91949760385933
 30
0.0
  0
VERTEX
  5
DFC
  8
DATA
  6
CONTINUOUS
 62
     7
 10
126.65540657235481
 20
378.22247652638521
 30
0.0
  0
VERTEX
  5
DFD
  8
DATA
  6
CONTINUOUS
 62
     7
 10
126.65540657235481
 20
378.5254554489112
 30
0.0
  0
SEQEND
  5
DFE
  8
DATA
  6
CONTINUOUS
 62
     7
  0
POLYLINE
  5
4C7
  8
DATA
  6
CONTINUOUS
 62
     7
 66
     1
 10
0.0
 20
0.0
 30
0.0
  0
VERTEX
  5
DFF
  8
DATA
  6
CONTINUOUS
 62
     7
 10
121.5096913759579
 20
378.5254554489112
 30
0.0
  0
VERTEX
  5
E00
  8
DATA
  6
CONTINUOUS
 62
     7
 10
122.41739652189951
 20
378.5254554489112
 30
0.0
  0
VERTEX
  5
E01
  8
DATA
  6
CONTINUOUS
 62
     7
 10
123.02335436695159
 20
378.82843437143748
 30
0.0
  0
VERTEX
  5
E02
  8
DATA
  6
CONTINUOUS
 62
     7
 10
123.9310595128931
 20
379.12895005069078
 30
0.0
  0
VERTEX
  5
E03
  8
DATA
  6
CONTINUOUS
 62
     7
 10
124.537017357946
 20
379.43192897321683
 30
0.0
  0
VERTEX
  5
E04
  8
DATA
  6
CONTINUOUS
 62
     7
 10
125.4447225038876
 20
379.73490789574299
 30
0.0
  0
VERTEX
  5
E05
  8
DATA
  6
CONTINUOUS
 62
     7
 10
126.0494487273036
 20
380.34086574079498
 30
0.0
  0
VERTEX
  5
E06
  8
DATA
  6
CONTINUOUS
 62
     7
 10
126.3524276498292
 20
380.34086574079498
 30
0.0
  0
VERTEX
  5
E07
  8
DATA
  6
CONTINUOUS
 62
     7
 10
126.3524276498292
 20
380.64384466332092
 30
0.0
  0
SEQEND
  5
E08
  8
DATA
  6
CONTINUOUS
 62
     7
  0
POLYLINE
  5
4D3
  8
DATA
  6
CONTINUOUS
 62
     7
 66
     1
 10
0.0
 20
0.0
 30
0.0
  0
VERTEX
  5
E09
  8
DATA
  6
CONTINUOUS
 62
     7
 10
121.20671245343151
 20
380.64384466332092
 30
0.0
  0
VERTEX
  5
E0A
  8
DATA
  6
CONTINUOUS
 62
     7
 10
121.5096913759579
 20
380.64384466332092
 30
0.0
  0
VERTEX
  5
E0B
  8
DATA
  6
CONTINUOUS
 62
     7
 10
122.11441759937389
 20
380.94682358584708
 30
0.0
  0
VERTEX
  5
E0C
  8
DATA
  6
CONTINUOUS
 62
     7
 10
122.7203754444251
 20
380.94682358584708
 30
0.0
  0
VERTEX
  5
E0D
  8
DATA
  6
CONTINUOUS
 62
     7
 10
123.6280805903675
 20
381.24980250837308
 30
0.0
  0
VERTEX
  5
E0E
  8
DATA
  6
CONTINUOUS
 62
     7
 10
124.23403843541961
 20
381.5503181876266
 30
0.0
  0
VERTEX
  5
E0F
  8
DATA
  6
CONTINUOUS
 62
     7
 10
125.1417435813612
 20
381.8532971101526
 30
0.0
  0
VERTEX
  5
E10
  8
DATA
  6
CONTINUOUS
 62
     7
 10
125.74646980477721
 20
382.45925495520493
 30
0.0
  0
VERTEX
  5
E11
  8
DATA
  6
CONTINUOUS
 62
     7
 10
125.74646980477721
 20
382.76223387773081
 30
0.0
  0
SEQEND
  5
E12
  8
DATA
  6
CONTINUOUS
 62
     7
  0
POLYLINE
  5
4DF
  8
DATA
  6
CONTINUOUS
 62
     7
 66
     1
 10
0.0
 20
0.0
 30
0.0
  0
VERTEX
  5
E13
  8
DATA
  6
CONTINUOUS
 62
     7
 10
120.9037335309059
 20
382.76223387773081
 30
0.0
  0
VERTEX
  5
E14
  8
DATA
  6
CONTINUOUS
 62
     7
 10
121.20671245343151
 20
382.76223387773081
 30
0.0
  0
VERTEX
  5
E15
  8
DATA
  6
CONTINUOUS
 62
     7
 10
121.8126702984835
 20
383.0652128002568
 30
0.0
  0
VERTEX
  5
E16
  8
DATA
  6
CONTINUOUS
 62
     7
 10
122.41739652189951
 20
383.0652128002568
 30
0.0
  0
VERTEX
  5
E17
  8
DATA
  6
CONTINUOUS
 62
     7
 10
123.02335436695159
 20
383.36819172278291
 30
0.0
  0
VERTEX
  5
E18
  8
DATA
  6
CONTINUOUS
 62
     7
 10
123.9310595128931
 20
383.67117064530891
 30
0.0
  0
VERTEX
  5
E19
  8
DATA
  6
CONTINUOUS
 62
     7
 10
125.1417435813612
 20
384.27466524708848
 30
0.0
  0
VERTEX
  5
E1A
  8
DATA
  6
CONTINUOUS
 62
     7
 10
125.4447225038876
 20
384.57764416961447
 30
0.0
  0
VERTEX
  5
E1B
  8
DATA
  6
CONTINUOUS
 62
     7
 10
125.4447225038876
 20
384.88062309214052
 30
0.0
  0
SEQEND
  5
E1C
  8
DATA
  6
CONTINUOUS
 62
     7
  0
POLYLINE
  5
4EB
  8
DATA
  6
CONTINUOUS
 62
     7
 66
     1
 10
0.0
 20
0.0
 30
0.0
  0
VERTEX
  5
E1D
  8
DATA
  6
CONTINUOUS
 62
     7
 10
120.6007546083794
 20
385.18360201466652
 30
0.0
  0
VERTEX
  5
E1E
  8
DATA
  6
CONTINUOUS
 62
     7
 10
120.6007546083794
 20
384.88062309214052
 30
0.0
  0
VERTEX
  5
E1F
  8
DATA
  6
CONTINUOUS
 62
     7
 10
120.9037335309059
 20
384.88062309214052
 30
0.0
  0
VERTEX
  5
E20
  8
DATA
  6
CONTINUOUS
 62
     7
 10
121.20671245343151
 20
385.18360201466652
 30
0.0
  0
VERTEX
  5
E21
  8
DATA
  6
CONTINUOUS
 62
     7
 10
122.11441759937389
 20
385.18360201466652
 30
0.0
  0
VERTEX
  5
E22
  8
DATA
  6
CONTINUOUS
 62
     7
 10
122.7203754444251
 20
385.48658093719268
 30
0.0
  0
VERTEX
  5
E23
  8
DATA
  6
CONTINUOUS
 62
     7
 10
123.6280805903675
 20
385.78955985971862
 30
0.0
  0
VERTEX
  5
E24
  8
DATA
  6
CONTINUOUS
 62
     7
 10
124.8387646588356
 20
386.39551770477073
 30
0.0
  0
VERTEX
  5
E25
  8
DATA
  6
CONTINUOUS
 62
     7
 10
125.1417435813612
 20
386.69603338402419
 30
0.0
  0
VERTEX
  5
E26
  8
DATA
  6
CONTINUOUS
 62
     7
 10
125.1417435813612
 20
386.9990123065503
 30
0.0
  0
SEQEND
  5
E27
  8
DATA
  6
CONTINUOUS
 62
     7
  0
LINE
  5
4F8
  8
DATA
  6
CONTINUOUS
 62
     7
 10
119.99602838496349
 20
387.30199122907618
 30
0.0
 11
121.5096913759579
 21
387.30199122907618
 31
0.0
  0
LINE
  5
4F9
  8
DATA
  6
CONTINUOUS
 62
     7
 10
147.39355091284651
 20
282.25060131204361
 30
0.0
 11
147.39277934900429
 21
282.25032048577128
 31
0.0
  0
LINE
  5
4FA
  8
DATA
  6
CONTINUOUS
 62
     7
 10
143.12680286578609
 20
280.6976320258002
 30
0.0
 11
143.9797666932769
 21
281.00808546991271
 31
0.0
  0
POLYLINE
  5
4FB
  8
DATA
  6
CONTINUOUS
 62
     7
 66
     1
 10
0.0
 20
0.0
 30
0.0
  0
VERTEX
  5
E28
  8
DATA
  6
CONTINUOUS
 62
     7
 10
145.47960190500811
 20
282.19882771304879
 30
0.0
  0
VERTEX
  5
E29
  8
DATA
  6
CONTINUOUS
 62
     7
 10
146.41002300123651
 20
283.18232016717133
 30
0.0
  0
VERTEX
  5
E2A
  8
DATA
  6
CONTINUOUS
 62
     7
 10
146.77187246077941
 20
283.95624814075308
 30
0.0
  0
VERTEX
  5
E2B
  8
DATA
  6
CONTINUOUS
 62
     7
 10
146.38451364048629
 20
284.13735649564171
 30
0.0
  0
SEQEND
  5
E2C
  8
DATA
  6
CONTINUOUS
 62
     7
  0
POLYLINE
  5
502
  8
DATA
  6
CONTINUOUS
 62
     7
 66
     1
 10
0.0
 20
0.0
 30
0.0
  0
VERTEX
  5
E2D
  8
DATA
  6
CONTINUOUS
 62
     7
 10
142.11756402530241
 20
282.58464184402641
 30
0.0
  0
VERTEX
  5
E2E
  8
DATA
  6
CONTINUOUS
 62
     7
 10
141.83285696755141
 20
282.48101694951959
 30
0.0
  0
VERTEX
  5
E2F
  8
DATA
  6
CONTINUOUS
 62
     7
 10
142.97168519855691
 20
282.89551652754761
 30
0.0
  0
SEQEND
  5
E30
  8
DATA
  6
CONTINUOUS
 62
     7
  0
POLYLINE
  5
508
  8
DATA
  6
CONTINUOUS
 62
     7
 66
     1
 10
0.0
 20
0.0
 30
0.0
  0
VERTEX
  5
E31
  8
DATA
  6
CONTINUOUS
 62
     7
 10
137.85269342443971
 20
299.2207212235225
 30
0.0
  0
VERTEX
  5
E32
  8
DATA
  6
CONTINUOUS
 62
     7
 10
138.76224725703429
 20
299.52431721106421
 30
0.0
  0
VERTEX
  5
E33
  8
DATA
  6
CONTINUOUS
 62
     7
 10
139.97293132550149
 20
300.1302750561162
 30
0.0
  0
VERTEX
  5
E34
  8
DATA
  6
CONTINUOUS
 62
     7
 10
140.57888917055431
 20
300.73623290116819
 30
0.0
  0
VERTEX
  5
E35
  8
DATA
  6
CONTINUOUS
 62
     7
 10
140.27591024802791
 20
301.03798020205801
 30
0.0
  0
SEQEND
  5
E36
  8
DATA
  6
CONTINUOUS
 62
     7
  0
POLYLINE
  5
510
  8
DATA
  6
CONTINUOUS
 62
     7
 66
     1
 10
0.0
 20
0.0
 30
0.0
  0
VERTEX
  5
E37
  8
DATA
  6
CONTINUOUS
 62
     7
 10
135.73492127504619
 20
301.03674858042177
 30
0.0
  0
VERTEX
  5
E38
  8
DATA
  6
CONTINUOUS
 62
     7
 10
135.4331739741566
 20
301.03674858042177
 30
0.0
  0
VERTEX
  5
E39
  8
DATA
  6
CONTINUOUS
 62
     7
 10
136.6438580426246
 20
301.03674858042177
 30
0.0
  0
SEQEND
  5
E3A
  8
DATA
  6
CONTINUOUS
 62
     7
  0
POLYLINE
  5
516
  8
DATA
  6
CONTINUOUS
 62
     7
 66
     1
 10
0.0
 20
0.0
 30
0.0
  0
VERTEX
  5
E3B
  8
DATA
  6
CONTINUOUS
 62
     7
 10
138.15752103361831
 20
301.64270642547382
 30
0.0
  0
VERTEX
  5
E3C
  8
DATA
  6
CONTINUOUS
 62
     7
 10
139.06522617955989
 20
301.94568534799993
 30
0.0
  0
VERTEX
  5
E3D
  8
DATA
  6
CONTINUOUS
 62
     7
 10
139.6711840246119
 20
302.24866427052581
 30
0.0
  0
VERTEX
  5
E3E
  8
DATA
  6
CONTINUOUS
 62
     7
 10
139.97293132550149
 20
302.5516431930518
 30
0.0
  0
VERTEX
  5
E3F
  8
DATA
  6
CONTINUOUS
 62
     7
 10
139.97293132550149
 20
303.45811671735743
 30
0.0
  0
SEQEND
  5
E40
  8
DATA
  6
CONTINUOUS
 62
     7
  0
POLYLINE
  5
51E
  8
DATA
  6
CONTINUOUS
 62
     7
 66
     1
 10
0.0
 20
0.0
 30
0.0
  0
VERTEX
  5
E41
  8
DATA
  6
CONTINUOUS
 62
     7
 10
135.4331739741566
 20
303.15760103810402
 30
0.0
  0
VERTEX
  5
E42
  8
DATA
  6
CONTINUOUS
 62
     7
 10
135.13019505163021
 20
303.15760103810402
 30
0.0
  0
VERTEX
  5
E43
  8
DATA
  6
CONTINUOUS
 62
     7
 10
136.34087912009821
 20
303.15760103810402
 30
0.0
  0
VERTEX
  5
E44
  8
DATA
  6
CONTINUOUS
 62
     7
 10
137.24858426603981
 20
303.45811671735743
 30
0.0
  0
VERTEX
  5
E45
  8
DATA
  6
CONTINUOUS
 62
     7
 10
137.85454211109271
 20
303.76109563988348
 30
0.0
  0
VERTEX
  5
E46
  8
DATA
  6
CONTINUOUS
 62
     7
 10
138.76224725703429
 20
304.06407456240959
 30
0.0
  0
VERTEX
  5
E47
  8
DATA
  6
CONTINUOUS
 62
     7
 10
139.36820510208631
 20
304.3670534849357
 30
0.0
  0
VERTEX
  5
E48
  8
DATA
  6
CONTINUOUS
 62
     7
 10
139.6711840246119
 20
304.67003240746169
 30
0.0
  0
VERTEX
  5
E49
  8
DATA
  6
CONTINUOUS
 62
     7
 10
139.6711840246119
 20
304.97301132998768
 30
0.0
  0
VERTEX
  5
E4A
  8
DATA
  6
CONTINUOUS
 62
     7
 10
139.36820510208631
 20
305.27599025251351
 30
0.0
  0
SEQEND
  5
E4B
  8
DATA
  6
CONTINUOUS
 62
     7
  0
POLYLINE
  5
52B
  8
DATA
  6
CONTINUOUS
 62
     7
 66
     1
 10
0.0
 20
0.0
 30
0.0
  0
VERTEX
  5
E4C
  8
DATA
  6
CONTINUOUS
 62
     7
 10
134.8272161291045
 20
305.27599025251368
 30
0.0
  0
VERTEX
  5
E4D
  8
DATA
  6
CONTINUOUS
 62
     7
 10
136.03790019757179
 20
305.27599025251368
 30
0.0
  0
VERTEX
  5
E4E
  8
DATA
  6
CONTINUOUS
 62
     7
 10
136.94683696515031
 20
305.57896917504002
 30
0.0
  0
VERTEX
  5
E4F
  8
DATA
  6
CONTINUOUS
 62
     7
 10
137.55156318856621
 20
305.87948485429331
 30
0.0
  0
VERTEX
  5
E50
  8
DATA
  6
CONTINUOUS
 62
     7
 10
138.4592683345079
 20
306.1824637768193
 30
0.0
  0
VERTEX
  5
E51
  8
DATA
  6
CONTINUOUS
 62
     7
 10
139.06522617955989
 20
306.4854426993453
 30
0.0
  0
VERTEX
  5
E52
  8
DATA
  6
CONTINUOUS
 62
     7
 10
139.36820510208631
 20
306.78842162187152
 30
0.0
  0
VERTEX
  5
E53
  8
DATA
  6
CONTINUOUS
 62
     7
 10
139.36820510208631
 20
307.09140054439752
 30
0.0
  0
VERTEX
  5
E54
  8
DATA
  6
CONTINUOUS
 62
     7
 10
139.06522617955989
 20
307.39437946692402
 30
0.0
  0
SEQEND
  5
E55
  8
DATA
  6
CONTINUOUS
 62
     7
  0
POLYLINE
  5
537
  8
DATA
  6
CONTINUOUS
 62
     7
 66
     1
 10
0.0
 20
0.0
 30
0.0
  0
VERTEX
  5
E56
  8
DATA
  6
CONTINUOUS
 62
     7
 10
134.5254688282142
 20
307.39437946692362
 30
0.0
  0
VERTEX
  5
E57
  8
DATA
  6
CONTINUOUS
 62
     7
 10
134.2224899056886
 20
307.39437946692362
 30
0.0
  0
VERTEX
  5
E58
  8
DATA
  6
CONTINUOUS
 62
     7
 10
135.13019505163021
 20
307.39437946692362
 30
0.0
  0
VERTEX
  5
E59
  8
DATA
  6
CONTINUOUS
 62
     7
 10
135.73492127504619
 20
307.69735838944962
 30
0.0
  0
VERTEX
  5
E5A
  8
DATA
  6
CONTINUOUS
 62
     7
 10
136.34087912009821
 20
307.69735838944962
 30
0.0
  0
SEQEND
  5
E5B
  8
DATA
  6
CONTINUOUS
 62
     7
  0
POLYLINE
  5
53F
  8
DATA
  6
CONTINUOUS
 62
     7
 66
     1
 10
0.0
 20
0.0
 30
0.0
  0
VERTEX
  5
E5C
  8
DATA
  6
CONTINUOUS
 62
     7
 10
137.253535112169
 20
308.00178330341481
 30
0.0
  0
VERTEX
  5
E5D
  8
DATA
  6
CONTINUOUS
 62
     7
 10
138.15752103361831
 20
308.30331623450161
 30
0.0
  0
VERTEX
  5
E5E
  8
DATA
  6
CONTINUOUS
 62
     7
 10
138.4592683345079
 20
308.60383191375519
 30
0.0
  0
SEQEND
  5
E5F
  8
DATA
  6
CONTINUOUS
 62
     7
  0
LINE
  5
545
  8
DATA
  6
CONTINUOUS
 62
     7
 10
138.76224725703429
 20
309.20978975880718
 30
0.0
 11
138.76224725703429
 21
309.81574760385922
 31
0.0
  0
POLYLINE
  5
546
  8
DATA
  6
CONTINUOUS
 62
     7
 66
     1
 10
0.0
 20
0.0
 30
0.0
  0
VERTEX
  5
E60
  8
DATA
  6
CONTINUOUS
 62
     7
 10
134.2224899056886
 20
309.51276868133323
 30
0.0
  0
VERTEX
  5
E61
  8
DATA
  6
CONTINUOUS
 62
     7
 10
133.91951098316301
 20
309.51276868133323
 30
0.0
  0
VERTEX
  5
E62
  8
DATA
  6
CONTINUOUS
 62
     7
 10
134.8272161291045
 20
309.51276868133323
 30
0.0
  0
VERTEX
  5
E63
  8
DATA
  6
CONTINUOUS
 62
     7
 10
135.4331739741566
 20
309.81574760385922
 30
0.0
  0
VERTEX
  5
E64
  8
DATA
  6
CONTINUOUS
 62
     7
 10
136.03790019757179
 20
309.81574760385922
 30
0.0
  0
VERTEX
  5
E65
  8
DATA
  6
CONTINUOUS
 62
     7
 10
136.94683696515031
 20
310.11872652638522
 30
0.0
  0
VERTEX
  5
E66
  8
DATA
  6
CONTINUOUS
 62
     7
 10
137.55156318856621
 20
310.42170544891121
 30
0.0
  0
VERTEX
  5
E67
  8
DATA
  6
CONTINUOUS
 62
     7
 10
138.4592683345079
 20
311.32817897321678
 30
0.0
  0
VERTEX
  5
E68
  8
DATA
  6
CONTINUOUS
 62
     7
 10
138.4592683345079
 20
311.63115789574277
 30
0.0
  0
VERTEX
  5
E69
  8
DATA
  6
CONTINUOUS
 62
     7
 10
138.15752103361831
 20
311.63115789574277
 30
0.0
  0
SEQEND
  5
E6A
  8
DATA
  6
CONTINUOUS
 62
     7
  0
LINE
  5
553
  8
DATA
  6
CONTINUOUS
 62
     7
 10
133.61653206063659
 20
311.63115789574277
 30
0.0
 11
134.2224899056886
 21
311.63115789574277
 31
0.0
  0
POLYLINE
  5
554
  8
DATA
  6
CONTINUOUS
 62
     7
 66
     1
 10
0.0
 20
0.0
 30
0.0
  0
VERTEX
  5
E6B
  8
DATA
  6
CONTINUOUS
 62
     7
 10
135.13019505163021
 20
311.93413681826883
 30
0.0
  0
VERTEX
  5
E6C
  8
DATA
  6
CONTINUOUS
 62
     7
 10
135.73492127504619
 20
311.93413681826883
 30
0.0
  0
VERTEX
  5
E6D
  8
DATA
  6
CONTINUOUS
 62
     7
 10
136.6438580426246
 20
312.23711574079499
 30
0.0
  0
VERTEX
  5
E6E
  8
DATA
  6
CONTINUOUS
 62
     7
 10
137.24858426603981
 20
312.84307358584698
 30
0.0
  0
VERTEX
  5
E6F
  8
DATA
  6
CONTINUOUS
 62
     7
 10
137.85454211109271
 20
313.14605250837309
 30
0.0
  0
VERTEX
  5
E70
  8
DATA
  6
CONTINUOUS
 62
     7
 10
138.15752103361831
 20
313.44656818762672
 30
0.0
  0
VERTEX
  5
E71
  8
DATA
  6
CONTINUOUS
 62
     7
 10
138.15752103361831
 20
313.74954711015261
 30
0.0
  0
VERTEX
  5
E72
  8
DATA
  6
CONTINUOUS
 62
     7
 10
137.85454211109271
 20
313.74954711015261
 30
0.0
  0
SEQEND
  5
E73
  8
DATA
  6
CONTINUOUS
 62
     7
  0
POLYLINE
  5
55F
  8
DATA
  6
CONTINUOUS
 62
     7
 66
     1
 10
0.0
 20
0.0
 30
0.0
  0
VERTEX
  5
E74
  8
DATA
  6
CONTINUOUS
 62
     7
 10
133.31355313811011
 20
314.05252603267871
 30
0.0
  0
VERTEX
  5
E75
  8
DATA
  6
CONTINUOUS
 62
     7
 10
133.31355313811011
 20
313.74954711015261
 30
0.0
  0
VERTEX
  5
E76
  8
DATA
  6
CONTINUOUS
 62
     7
 10
133.91951098316301
 20
313.74954711015261
 30
0.0
  0
VERTEX
  5
E77
  8
DATA
  6
CONTINUOUS
 62
     7
 10
134.8272161291045
 20
314.05252603267871
 30
0.0
  0
VERTEX
  5
E78
  8
DATA
  6
CONTINUOUS
 62
     7
 10
135.4331739741566
 20
314.35550495520471
 30
0.0
  0
VERTEX
  5
E79
  8
DATA
  6
CONTINUOUS
 62
     7
 10
136.34087912009821
 20
314.65848387773087
 30
0.0
  0
VERTEX
  5
E7A
  8
DATA
  6
CONTINUOUS
 62
     7
 10
137.55156318856621
 20
315.26444172278292
 30
0.0
  0
VERTEX
  5
E7B
  8
DATA
  6
CONTINUOUS
 62
     7
 10
137.85454211109271
 20
315.56742064530903
 30
0.0
  0
VERTEX
  5
E7C
  8
DATA
  6
CONTINUOUS
 62
     7
 10
137.85454211109271
 20
315.87039956783491
 30
0.0
  0
VERTEX
  5
E7D
  8
DATA
  6
CONTINUOUS
 62
     7
 10
137.55156318856621
 20
316.17214686872489
 30
0.0
  0
SEQEND
  5
E7E
  8
DATA
  6
CONTINUOUS
 62
     7
  0
POLYLINE
  5
56C
  8
DATA
  6
CONTINUOUS
 62
     7
 66
     1
 10
0.0
 20
0.0
 30
0.0
 70
   128
  0
VERTEX
  5
E7F
  8
DATA
  6
CONTINUOUS
 62
     7
 10
133.01180583722061
 20
316.17091524708849
 30
0.0
  0
VERTEX
  5
E80
  8
DATA
  6
CONTINUOUS
 62
     7
 10
132.70882691469501
 20
315.87039956783491
 30
0.0
  0
VERTEX
  5
E81
  8
DATA
  6
CONTINUOUS
 62
     7
 10
133.61653206063659
 20
315.87039956783491
 30
0.0
  0
VERTEX
  5
E82
  8
DATA
  6
CONTINUOUS
 62
     7
 10
134.2224899056886
 20
316.17091524708849
 30
0.0
  0
VERTEX
  5
E83
  8
DATA
  6
CONTINUOUS
 62
     7
 10
136.03790019757179
 20
316.77687309214048
 30
0.0
  0
VERTEX
  5
E84
  8
DATA
  6
CONTINUOUS
 62
     7
 10
137.24858426603981
 20
317.38283093719258
 30
0.0
  0
VERTEX
  5
E85
  8
DATA
  6
CONTINUOUS
 62
     7
 10
137.24858426603981
 20
318.59228338402409
 30
0.0
  0
SEQEND
  5
E86
  8
DATA
  6
CONTINUOUS
 62
     7
  0
POLYLINE
  5
575
  8
DATA
  6
CONTINUOUS
 62
     7
 66
     1
 10
0.0
 20
0.0
 30
0.0
  0
VERTEX
  5
E87
  8
DATA
  6
CONTINUOUS
 62
     7
 10
132.70882691469501
 20
318.29176770477062
 30
0.0
  0
VERTEX
  5
E88
  8
DATA
  6
CONTINUOUS
 62
     7
 10
132.4058479921685
 20
317.98878878224463
 30
0.0
  0
VERTEX
  5
E89
  8
DATA
  6
CONTINUOUS
 62
     7
 10
132.70882691469501
 20
317.98878878224463
 30
0.0
  0
SEQEND
  5
E8A
  8
DATA
  6
CONTINUOUS
 62
     7
  0
LINE
  5
57B
  8
DATA
  6
CONTINUOUS
 62
     7
 10
133.31355313811011
 20
318.29176770477062
 30
0.0
 11
133.91951098316301
 21
318.29176770477062
 31
0.0
  0
POLYLINE
  5
57C
  8
DATA
  6
CONTINUOUS
 62
     7
 66
     1
 10
0.0
 20
0.0
 30
0.0
  0
VERTEX
  5
E8B
  8
DATA
  6
CONTINUOUS
 62
     7
 10
134.82537119994581
 20
318.59290169813818
 30
0.0
  0
VERTEX
  5
E8C
  8
DATA
  6
CONTINUOUS
 62
     7
 10
135.73492127504619
 20
318.89526230655019
 30
0.0
  0
VERTEX
  5
E8D
  8
DATA
  6
CONTINUOUS
 62
     7
 10
136.34087912009821
 20
319.19824122907619
 30
0.0
  0
VERTEX
  5
E8E
  8
DATA
  6
CONTINUOUS
 62
     7
 10
136.94683696515031
 20
319.80419907412818
 30
0.0
  0
VERTEX
  5
E8F
  8
DATA
  6
CONTINUOUS
 62
     7
 10
136.94683696515031
 20
320.10717799665417
 30
0.0
  0
VERTEX
  5
E90
  8
DATA
  6
CONTINUOUS
 62
     7
 10
136.7953475038872
 20
320.2586674579174
 30
0.0
  0
SEQEND
  5
E91
  8
DATA
  6
CONTINUOUS
 62
     7
  0
LINE
  5
585
  8
DATA
  6
CONTINUOUS
 62
     7
 10
132.4058479921685
 20
320.41015691918039
 30
0.0
 11
132.10410069127889
 21
320.10717799665417
 31
0.0
  0
POLYLINE
  5
586
  8
DATA
  6
CONTINUOUS
 62
     7
 66
     1
 10
0.0
 20
0.0
 30
0.0
  0
VERTEX
  5
E92
  8
DATA
  6
CONTINUOUS
 62
     7
 10
133.01180583722061
 20
320.41015691918039
 30
0.0
  0
VERTEX
  5
E93
  8
DATA
  6
CONTINUOUS
 62
     7
 10
133.61653206063659
 20
320.41015691918039
 30
0.0
  0
VERTEX
  5
E94
  8
DATA
  6
CONTINUOUS
 62
     7
 10
134.5254688282142
 20
320.7131358417065
 30
0.0
  0
VERTEX
  5
E95
  8
DATA
  6
CONTINUOUS
 62
     7
 10
135.13019505163021
 20
321.0136515209598
 30
0.0
  0
VERTEX
  5
E96
  8
DATA
  6
CONTINUOUS
 62
     7
 10
136.03790019757179
 20
321.31663044348602
 30
0.0
  0
VERTEX
  5
E97
  8
DATA
  6
CONTINUOUS
 62
     7
 10
136.6438580426246
 20
321.92258828853801
 30
0.0
  0
VERTEX
  5
E98
  8
DATA
  6
CONTINUOUS
 62
     7
 10
136.6438580426246
 20
322.22556721106412
 30
0.0
  0
VERTEX
  5
E99
  8
DATA
  6
CONTINUOUS
 62
     7
 10
136.44187209427369
 20
322.42755315941491
 30
0.0
  0
SEQEND
  5
E9A
  8
DATA
  6
CONTINUOUS
 62
     7
  0
POLYLINE
  5
591
  8
DATA
  6
CONTINUOUS
 62
     7
 66
     1
 10
0.0
 20
0.0
 30
0.0
  0
VERTEX
  5
E9B
  8
DATA
  6
CONTINUOUS
 62
     7
 10
131.80112176875249
 20
322.52854613359023
 30
0.0
  0
VERTEX
  5
E9C
  8
DATA
  6
CONTINUOUS
 62
     7
 10
131.80112176875249
 20
322.22556721106412
 30
0.0
  0
VERTEX
  5
E9D
  8
DATA
  6
CONTINUOUS
 62
     7
 10
132.10410069127889
 20
322.22556721106412
 30
0.0
  0
VERTEX
  5
E9E
  8
DATA
  6
CONTINUOUS
 62
     7
 10
132.70882691469501
 20
322.52854613359023
 30
0.0
  0
VERTEX
  5
E9F
  8
DATA
  6
CONTINUOUS
 62
     7
 10
133.31355313811011
 20
322.52854613359023
 30
0.0
  0
VERTEX
  5
EA0
  8
DATA
  6
CONTINUOUS
 62
     7
 10
134.2224899056886
 20
322.83152505611639
 30
0.0
  0
VERTEX
  5
EA1
  8
DATA
  6
CONTINUOUS
 62
     7
 10
134.8272161291045
 20
323.13450397864239
 30
0.0
  0
VERTEX
  5
EA2
  8
DATA
  6
CONTINUOUS
 62
     7
 10
135.73492127504619
 20
323.43748290116832
 30
0.0
  0
VERTEX
  5
EA3
  8
DATA
  6
CONTINUOUS
 62
     7
 10
136.34087912009821
 20
324.0409775029479
 30
0.0
  0
VERTEX
  5
EA4
  8
DATA
  6
CONTINUOUS
 62
     7
 10
136.34087912009821
 20
324.34395642547378
 30
0.0
  0
VERTEX
  5
EA5
  8
DATA
  6
CONTINUOUS
 62
     7
 10
136.03790019757179
 20
324.64693534800028
 30
0.0
  0
SEQEND
  5
EA6
  8
DATA
  6
CONTINUOUS
 62
     7
  0
LINE
  5
59F
  8
DATA
  6
CONTINUOUS
 62
     7
 10
131.4981428462269
 20
324.64693534799989
 30
0.0
 11
131.19516392370051
 21
324.64693534799989
 31
0.0
  0
POLYLINE
  5
5A0
  8
DATA
  6
CONTINUOUS
 62
     7
 66
     1
 10
0.0
 20
0.0
 30
0.0
  0
VERTEX
  5
EA7
  8
DATA
  6
CONTINUOUS
 62
     7
 10
132.4058479921685
 20
324.64693534799989
 30
0.0
  0
VERTEX
  5
EA8
  8
DATA
  6
CONTINUOUS
 62
     7
 10
133.01180583722061
 20
324.64693534799989
 30
0.0
  0
VERTEX
  5
EA9
  8
DATA
  6
CONTINUOUS
 62
     7
 10
133.91951098316301
 20
324.94991427052588
 30
0.0
  0
VERTEX
  5
EAA
  8
DATA
  6
CONTINUOUS
 62
     7
 10
135.73492127504619
 20
325.85885103810398
 30
0.0
  0
VERTEX
  5
EAB
  8
DATA
  6
CONTINUOUS
 62
     7
 10
135.73492127504619
 20
327.0683034849356
 30
0.0
  0
SEQEND
  5
EAC
  8
DATA
  6
CONTINUOUS
 62
     7
  0
POLYLINE
  5
5A8
  8
DATA
  6
CONTINUOUS
 62
     7
 66
     1
 10
0.0
 20
0.0
 30
0.0
  0
VERTEX
  5
EAD
  8
DATA
  6
CONTINUOUS
 62
     7
 10
131.19516392370051
 20
326.76532456240949
 30
0.0
  0
VERTEX
  5
EAE
  8
DATA
  6
CONTINUOUS
 62
     7
 10
130.89218500117491
 20
326.76532456240949
 30
0.0
  0
VERTEX
  5
EAF
  8
DATA
  6
CONTINUOUS
 62
     7
 10
132.70882691469501
 20
326.76532456240949
 30
0.0
  0
VERTEX
  5
EB0
  8
DATA
  6
CONTINUOUS
 62
     7
 10
133.61653206063659
 20
327.0683034849356
 30
0.0
  0
VERTEX
  5
EB1
  8
DATA
  6
CONTINUOUS
 62
     7
 10
134.8272161291045
 20
327.6742613299877
 30
0.0
  0
VERTEX
  5
EB2
  8
DATA
  6
CONTINUOUS
 62
     7
 10
135.4331739741566
 20
328.2802191750398
 30
0.0
  0
VERTEX
  5
EB3
  8
DATA
  6
CONTINUOUS
 62
     7
 10
135.4331739741566
 20
328.5807348542931
 30
0.0
  0
VERTEX
  5
EB4
  8
DATA
  6
CONTINUOUS
 62
     7
 10
135.12998964219159
 20
328.88391918625831
 30
0.0
  0
SEQEND
  5
EB5
  8
DATA
  6
CONTINUOUS
 62
     7
  0
LINE
  5
5B3
  8
DATA
  6
CONTINUOUS
 62
     7
 10
130.5904377002845
 20
328.88371377681921
 30
0.0
 11
131.4981428462269
 21
328.88371377681921
 31
0.0
  0
LINE
  5
5B4
  8
DATA
  6
CONTINUOUS
 62
     7
 10
134.52423970479731
 20
332.51638304215078
 30
0.0
 11
134.5254688282142
 21
332.5176146688741
 31
0.0
  0
POLYLINE
  5
5B5
  8
DATA
  6
CONTINUOUS
 62
     7
 66
     1
 10
0.0
 20
0.0
 30
0.0
  0
VERTEX
  5
EB6
  8
DATA
  6
CONTINUOUS
 62
     7
 10
129.98447985523319
 20
333.12295544891123
 30
0.0
  0
VERTEX
  5
EB7
  8
DATA
  6
CONTINUOUS
 62
     7
 10
129.68150093270691
 20
333.12295544891123
 30
0.0
  0
VERTEX
  5
EB8
  8
DATA
  6
CONTINUOUS
 62
     7
 10
130.89218500117491
 20
333.12295544891123
 30
0.0
  0
VERTEX
  5
EB9
  8
DATA
  6
CONTINUOUS
 62
     7
 10
131.80112176875249
 20
333.42593437143728
 30
0.0
  0
SEQEND
  5
EBA
  8
DATA
  6
CONTINUOUS
 62
     7
  0
LINE
  5
5BC
  8
DATA
  6
CONTINUOUS
 62
     7
 10
134.2224899056886
 20
334.93836574079489
 30
0.0
 11
134.2224899056886
 21
335.544323585847
 31
0.0
  0
POLYLINE
  5
5BD
  8
DATA
  6
CONTINUOUS
 62
     7
 66
     1
 10
0.0
 20
0.0
 30
0.0
  0
VERTEX
  5
EBB
  8
DATA
  6
CONTINUOUS
 62
     7
 10
129.68150093270691
 20
335.24134466332089
 30
0.0
  0
VERTEX
  5
EBC
  8
DATA
  6
CONTINUOUS
 62
     7
 10
129.37975363181729
 20
335.24134466332089
 30
0.0
  0
VERTEX
  5
EBD
  8
DATA
  6
CONTINUOUS
 62
     7
 10
130.5904377002845
 20
335.24134466332089
 30
0.0
  0
VERTEX
  5
EBE
  8
DATA
  6
CONTINUOUS
 62
     7
 10
131.4981428462269
 20
335.544323585847
 30
0.0
  0
VERTEX
  5
EBF
  8
DATA
  6
CONTINUOUS
 62
     7
 10
132.10410069127889
 20
335.84730250837288
 30
0.0
  0
VERTEX
  5
EC0
  8
DATA
  6
CONTINUOUS
 62
     7
 10
133.01180583722061
 20
336.14781818762651
 30
0.0
  0
VERTEX
  5
EC1
  8
DATA
  6
CONTINUOUS
 62
     7
 10
133.61653206063659
 20
336.45079711015251
 30
0.0
  0
VERTEX
  5
EC2
  8
DATA
  6
CONTINUOUS
 62
     7
 10
133.91951098316301
 20
336.7537760326785
 30
0.0
  0
VERTEX
  5
EC3
  8
DATA
  6
CONTINUOUS
 62
     7
 10
133.91951098316301
 20
337.35973387773089
 30
0.0
  0
VERTEX
  5
EC4
  8
DATA
  6
CONTINUOUS
 62
     7
 10
133.6165320606363
 20
337.35973387773089
 30
0.0
  0
SEQEND
  5
EC5
  8
DATA
  6
CONTINUOUS
 62
     7
  0
POLYLINE
  5
5CA
  8
DATA
  6
CONTINUOUS
 62
     7
 66
     1
 10
0.0
 20
0.0
 30
0.0
  0
VERTEX
  5
EC6
  8
DATA
  6
CONTINUOUS
 62
     7
 10
129.0767747092909
 20
337.35973387773089
 30
0.0
  0
VERTEX
  5
EC7
  8
DATA
  6
CONTINUOUS
 62
     7
 10
130.2874587777589
 20
337.35973387773089
 30
0.0
  0
VERTEX
  5
EC8
  8
DATA
  6
CONTINUOUS
 62
     7
 10
130.89218500117491
 20
337.66271280025683
 30
0.0
  0
VERTEX
  5
EC9
  8
DATA
  6
CONTINUOUS
 62
     7
 10
132.70882691469501
 20
338.26867064530899
 30
0.0
  0
VERTEX
  5
ECA
  8
DATA
  6
CONTINUOUS
 62
     7
 10
133.01180583722061
 20
338.57164956783498
 30
0.0
  0
SEQEND
  5
ECB
  8
DATA
  6
CONTINUOUS
 62
     7
  0
POLYLINE
  5
5D2
  8
DATA
  6
CONTINUOUS
 62
     7
 66
     1
 10
0.0
 20
0.0
 30
0.0
  0
VERTEX
  5
ECC
  8
DATA
  6
CONTINUOUS
 62
     7
 10
128.77379578676531
 20
339.47812309214061
 30
0.0
  0
VERTEX
  5
ECD
  8
DATA
  6
CONTINUOUS
 62
     7
 10
129.98447985523319
 20
339.47812309214061
 30
0.0
  0
VERTEX
  5
ECE
  8
DATA
  6
CONTINUOUS
 62
     7
 10
130.5904377002845
 20
339.7811020146666
 30
0.0
  0
VERTEX
  5
ECF
  8
DATA
  6
CONTINUOUS
 62
     7
 10
131.4981428462269
 20
340.0840809371926
 30
0.0
  0
VERTEX
  5
ED0
  8
DATA
  6
CONTINUOUS
 62
     7
 10
132.70882691469501
 20
340.69003878224459
 30
0.0
  0
VERTEX
  5
ED1
  8
DATA
  6
CONTINUOUS
 62
     7
 10
133.31355313811011
 20
341.29353338402422
 30
0.0
  0
VERTEX
  5
ED2
  8
DATA
  6
CONTINUOUS
 62
     7
 10
133.01180583722061
 20
341.59589524153512
 30
0.0
  0
SEQEND
  5
ED3
  8
DATA
  6
CONTINUOUS
 62
     7
  0
POLYLINE
  5
5DC
  8
DATA
  6
CONTINUOUS
 62
     7
 66
     1
 10
0.0
 20
0.0
 30
0.0
  0
VERTEX
  5
ED4
  8
DATA
  6
CONTINUOUS
 62
     7
 10
128.47081686423891
 20
341.59651230655032
 30
0.0
  0
VERTEX
  5
ED5
  8
DATA
  6
CONTINUOUS
 62
     7
 10
128.16783794171241
 20
341.59651230655032
 30
0.0
  0
VERTEX
  5
ED6
  8
DATA
  6
CONTINUOUS
 62
     7
 10
128.77379578676531
 20
341.59651230655032
 30
0.0
  0
SEQEND
  5
ED7
  8
DATA
  6
CONTINUOUS
 62
     7
  0
POLYLINE
  5
5E2
  8
DATA
  6
CONTINUOUS
 62
     7
 66
     1
 10
0.0
 20
0.0
 30
0.0
  0
VERTEX
  5
ED8
  8
DATA
  6
CONTINUOUS
 62
     7
 10
129.68150093270691
 20
341.8994912290762
 30
0.0
  0
VERTEX
  5
ED9
  8
DATA
  6
CONTINUOUS
 62
     7
 10
130.2874587777589
 20
341.8994912290762
 30
0.0
  0
VERTEX
  5
EDA
  8
DATA
  6
CONTINUOUS
 62
     7
 10
131.19516392370051
 20
342.20247015160231
 30
0.0
  0
VERTEX
  5
EDB
  8
DATA
  6
CONTINUOUS
 62
     7
 10
132.4058479921685
 20
342.8084279966543
 30
0.0
  0
VERTEX
  5
EDC
  8
DATA
  6
CONTINUOUS
 62
     7
 10
132.70882691469501
 20
343.41438584170641
 30
0.0
  0
VERTEX
  5
EDD
  8
DATA
  6
CONTINUOUS
 62
     7
 10
132.70882691469501
 20
344.01788044348581
 30
0.0
  0
SEQEND
  5
EDE
  8
DATA
  6
CONTINUOUS
 62
     7
  0
POLYLINE
  5
5EB
  8
DATA
  6
CONTINUOUS
 62
     7
 66
     1
 10
0.0
 20
0.0
 30
0.0
  0
VERTEX
  5
EDF
  8
DATA
  6
CONTINUOUS
 62
     7
 10
128.16783794171241
 20
343.71490152095993
 30
0.0
  0
VERTEX
  5
EE0
  8
DATA
  6
CONTINUOUS
 62
     7
 10
127.8660906408228
 20
343.71490152095993
 30
0.0
  0
VERTEX
  5
EE1
  8
DATA
  6
CONTINUOUS
 62
     7
 10
128.47081686423891
 20
343.71490152095993
 30
0.0
  0
SEQEND
  5
EE2
  8
DATA
  6
CONTINUOUS
 62
     7
  0
POLYLINE
  5
5F1
  8
DATA
  6
CONTINUOUS
 62
     7
 66
     1
 10
0.0
 20
0.0
 30
0.0
  0
VERTEX
  5
EE3
  8
DATA
  6
CONTINUOUS
 62
     7
 10
129.37790994669061
 20
344.01726588177701
 30
0.0
  0
VERTEX
  5
EE4
  8
DATA
  6
CONTINUOUS
 62
     7
 10
129.37975363181729
 20
344.01788044348581
 30
0.0
  0
VERTEX
  5
EE5
  8
DATA
  6
CONTINUOUS
 62
     7
 10
129.98447985523319
 20
344.01788044348581
 30
0.0
  0
VERTEX
  5
EE6
  8
DATA
  6
CONTINUOUS
 62
     7
 10
130.89218500117491
 20
344.32085936601197
 30
0.0
  0
VERTEX
  5
EE7
  8
DATA
  6
CONTINUOUS
 62
     7
 10
131.4981428462269
 20
344.62383828853791
 30
0.0
  0
VERTEX
  5
EE8
  8
DATA
  6
CONTINUOUS
 62
     7
 10
132.4058479921685
 20
345.53277505611618
 30
0.0
  0
VERTEX
  5
EE9
  8
DATA
  6
CONTINUOUS
 62
     7
 10
132.4058479921685
 20
345.83575397864217
 30
0.0
  0
VERTEX
  5
EEA
  8
DATA
  6
CONTINUOUS
 62
     7
 10
132.10410069127889
 20
345.83575397864217
 30
0.0
  0
SEQEND
  5
EEB
  8
DATA
  6
CONTINUOUS
 62
     7
  0
POLYLINE
  5
5FC
  8
DATA
  6
CONTINUOUS
 62
     7
 66
     1
 10
0.0
 20
0.0
 30
0.0
  0
VERTEX
  5
EEC
  8
DATA
  6
CONTINUOUS
 62
     7
 10
127.56311171829719
 20
346.13873290116828
 30
0.0
  0
VERTEX
  5
EED
  8
DATA
  6
CONTINUOUS
 62
     7
 10
127.56311171829719
 20
345.83575397864217
 30
0.0
  0
VERTEX
  5
EEE
  8
DATA
  6
CONTINUOUS
 62
     7
 10
128.16783794171241
 20
345.83575397864217
 30
0.0
  0
VERTEX
  5
EEF
  8
DATA
  6
CONTINUOUS
 62
     7
 10
128.77379578676531
 20
346.13873290116828
 30
0.0
  0
VERTEX
  5
EF0
  8
DATA
  6
CONTINUOUS
 62
     7
 10
129.68150093270691
 20
346.13873290116828
 30
0.0
  0
VERTEX
  5
EF1
  8
DATA
  6
CONTINUOUS
 62
     7
 10
130.5904377002845
 20
346.43924858042169
 30
0.0
  0
VERTEX
  5
EF2
  8
DATA
  6
CONTINUOUS
 62
     7
 10
131.19516392370051
 20
347.04520642547379
 30
0.0
  0
VERTEX
  5
EF3
  8
DATA
  6
CONTINUOUS
 62
     7
 10
131.80112176875249
 20
347.34818534800002
 30
0.0
  0
VERTEX
  5
EF4
  8
DATA
  6
CONTINUOUS
 62
     7
 10
132.10410069127889
 20
347.65116427052601
 30
0.0
  0
VERTEX
  5
EF5
  8
DATA
  6
CONTINUOUS
 62
     7
 10
132.10410069127889
 20
347.954143193052
 30
0.0
  0
SEQEND
  5
EF6
  8
DATA
  6
CONTINUOUS
 62
     7
  0
POLYLINE
  5
609
  8
DATA
  6
CONTINUOUS
 62
     7
 66
     1
 10
0.0
 20
0.0
 30
0.0
 70
   128
  0
VERTEX
  5
EF7
  8
DATA
  6
CONTINUOUS
 62
     7
 10
132.10410069127889
 20
347.954143193052
 30
0.0
  0
VERTEX
  5
EF8
  8
DATA
  6
CONTINUOUS
 62
     7
 10
131.80112176875249
 20
347.954143193052
 30
0.0
  0
VERTEX
  5
EF9
  8
DATA
  6
CONTINUOUS
 62
     7
 10
131.80112176875249
 20
348.257122115578
 30
0.0
  0
VERTEX
  5
EFA
  8
DATA
  6
CONTINUOUS
 62
     7
 10
131.80112176875249
 20
348.56010103810411
 30
0.0
  0
SEQEND
  5
EFB
  8
DATA
  6
CONTINUOUS
 62
     7
  0
LINE
  5
60F
  8
DATA
  6
CONTINUOUS
 62
     7
 10
131.4981428462269
 20
350.07253240746172
 30
0.0
 11
131.4981428462269
 21
350.37551132998772
 31
0.0
  0
POLYLINE
  5
610
  8
DATA
  6
CONTINUOUS
 62
     7
 66
     1
 10
0.0
 20
0.0
 30
0.0
  0
VERTEX
  5
EFC
  8
DATA
  6
CONTINUOUS
 62
     7
 10
126.9583854948812
 20
350.37551132998772
 30
0.0
  0
VERTEX
  5
EFD
  8
DATA
  6
CONTINUOUS
 62
     7
 10
126.65540657235481
 20
350.07253240746172
 30
0.0
  0
VERTEX
  5
EFE
  8
DATA
  6
CONTINUOUS
 62
     7
 10
127.56311171829719
 20
350.07253240746172
 30
0.0
  0
VERTEX
  5
EFF
  8
DATA
  6
CONTINUOUS
 62
     7
 10
128.16783794171241
 20
350.37551132998772
 30
0.0
  0
VERTEX
  5
F00
  8
DATA
  6
CONTINUOUS
 62
     7
 10
129.0767747092909
 20
350.6784902525136
 30
0.0
  0
VERTEX
  5
F01
  8
DATA
  6
CONTINUOUS
 62
     7
 10
129.68150093270691
 20
350.98146917503959
 30
0.0
  0
VERTEX
  5
F02
  8
DATA
  6
CONTINUOUS
 62
     7
 10
130.5904377002845
 20
351.28198485429323
 30
0.0
  0
VERTEX
  5
F03
  8
DATA
  6
CONTINUOUS
 62
     7
 10
131.3971955289112
 20
352.08983733397588
 30
0.0
  0
SEQEND
  5
F04
  8
DATA
  6
CONTINUOUS
 62
     7
  0
LINE
  5
61B
  8
DATA
  6
CONTINUOUS
 62
     7
 10
131.19516392370051
 20
352.49390054439732
 30
0.0
 11
131.19516392370051
 21
352.7968794669236
 31
0.0
  0
POLYLINE
  5
61C
  8
DATA
  6
CONTINUOUS
 62
     7
 66
     1
 10
0.0
 20
0.0
 30
0.0
  0
VERTEX
  5
F05
  8
DATA
  6
CONTINUOUS
 62
     7
 10
126.3524276498292
 20
352.19092162187133
 30
0.0
  0
VERTEX
  5
F06
  8
DATA
  6
CONTINUOUS
 62
     7
 10
126.65540657235481
 20
352.19092162187133
 30
0.0
  0
VERTEX
  5
F07
  8
DATA
  6
CONTINUOUS
 62
     7
 10
127.2601327957708
 20
352.49390054439732
 30
0.0
  0
VERTEX
  5
F08
  8
DATA
  6
CONTINUOUS
 62
     7
 10
127.8660906408228
 20
352.49390054439732
 30
0.0
  0
VERTEX
  5
F09
  8
DATA
  6
CONTINUOUS
 62
     7
 10
128.77379578676531
 20
352.7968794669236
 30
0.0
  0
VERTEX
  5
F0A
  8
DATA
  6
CONTINUOUS
 62
     7
 10
129.37975363181729
 20
353.09985838944948
 30
0.0
  0
VERTEX
  5
F0B
  8
DATA
  6
CONTINUOUS
 62
     7
 10
130.2874587777589
 20
353.40283731197547
 30
0.0
  0
VERTEX
  5
F0C
  8
DATA
  6
CONTINUOUS
 62
     7
 10
131.19516392370051
 20
354.3093108362811
 30
0.0
  0
SEQEND
  5
F0D
  8
DATA
  6
CONTINUOUS
 62
     7
  0
POLYLINE
  5
627
  8
DATA
  6
CONTINUOUS
 62
     7
 66
     1
 10
0.0
 20
0.0
 30
0.0
  0
VERTEX
  5
F0E
  8
DATA
  6
CONTINUOUS
 62
     7
 10
122.7203754444251
 20
373.68271917503972
 30
0.0
  0
VERTEX
  5
F0F
  8
DATA
  6
CONTINUOUS
 62
     7
 10
122.41739652189951
 20
373.68271917503972
 30
0.0
  0
VERTEX
  5
F10
  8
DATA
  6
CONTINUOUS
 62
     7
 10
123.02335436695159
 20
373.68271917503972
 30
0.0
  0
SEQEND
  5
F11
  8
DATA
  6
CONTINUOUS
 62
     7
  0
POLYLINE
  5
62D
  8
DATA
  6
CONTINUOUS
 62
     7
 66
     1
 10
0.0
 20
0.0
 30
0.0
  0
VERTEX
  5
F12
  8
DATA
  6
CONTINUOUS
 62
     7
 10
123.9310595128931
 20
373.98323485429319
 30
0.0
  0
VERTEX
  5
F13
  8
DATA
  6
CONTINUOUS
 62
     7
 10
124.537017357946
 20
373.98323485429319
 30
0.0
  0
VERTEX
  5
F14
  8
DATA
  6
CONTINUOUS
 62
     7
 10
125.4447225038876
 20
374.28621377681941
 30
0.0
  0
VERTEX
  5
F15
  8
DATA
  6
CONTINUOUS
 62
     7
 10
126.65540657235481
 20
374.89217162187128
 30
0.0
  0
VERTEX
  5
F16
  8
DATA
  6
CONTINUOUS
 62
     7
 10
126.9583854948812
 20
375.19515054439728
 30
0.0
  0
SEQEND
  5
F17
  8
DATA
  6
CONTINUOUS
 62
     7
  0
POLYLINE
  5
635
  8
DATA
  6
CONTINUOUS
 62
     7
 66
     1
 10
0.0
 20
0.0
 30
0.0
  0
VERTEX
  5
F18
  8
DATA
  6
CONTINUOUS
 62
     7
 10
122.41739652189951
 20
376.10408731197538
 30
0.0
  0
VERTEX
  5
F19
  8
DATA
  6
CONTINUOUS
 62
     7
 10
122.11441759937389
 20
375.8011083894495
 30
0.0
  0
VERTEX
  5
F1A
  8
DATA
  6
CONTINUOUS
 62
     7
 10
122.7203754444251
 20
375.8011083894495
 30
0.0
  0
SEQEND
  5
F1B
  8
DATA
  6
CONTINUOUS
 62
     7
  0
POLYLINE
  5
63B
  8
DATA
  6
CONTINUOUS
 62
     7
 66
     1
 10
0.0
 20
0.0
 30
0.0
  0
VERTEX
  5
F1C
  8
DATA
  6
CONTINUOUS
 62
     7
 10
123.6280805903675
 20
376.10408731197538
 30
0.0
  0
VERTEX
  5
F1D
  8
DATA
  6
CONTINUOUS
 62
     7
 10
124.23403843541961
 20
376.10408731197538
 30
0.0
  0
VERTEX
  5
F1E
  8
DATA
  6
CONTINUOUS
 62
     7
 10
125.1417435813612
 20
376.40706623450171
 30
0.0
  0
VERTEX
  5
F1F
  8
DATA
  6
CONTINUOUS
 62
     7
 10
126.3524276498292
 20
377.01056083628112
 30
0.0
  0
VERTEX
  5
F20
  8
DATA
  6
CONTINUOUS
 62
     7
 10
126.65540657235481
 20
377.61651868133322
 30
0.0
  0
VERTEX
  5
F21
  8
DATA
  6
CONTINUOUS
 62
     7
 10
126.65540657235481
 20
377.91949760385933
 30
0.0
  0
VERTEX
  5
F22
  8
DATA
  6
CONTINUOUS
 62
     7
 10
126.3524276498292
 20
377.91949760385933
 30
0.0
  0
SEQEND
  5
F23
  8
DATA
  6
CONTINUOUS
 62
     7
  0
POLYLINE
  5
645
  8
DATA
  6
CONTINUOUS
 62
     7
 66
     1
 10
0.0
 20
0.0
 30
0.0
  0
VERTEX
  5
F24
  8
DATA
  6
CONTINUOUS
 62
     7
 10
122.0138351657438
 20
378.12148355221001
 30
0.0
  0
VERTEX
  5
F25
  8
DATA
  6
CONTINUOUS
 62
     7
 10
121.8126702984835
 20
377.91949760385933
 30
0.0
  0
VERTEX
  5
F26
  8
DATA
  6
CONTINUOUS
 62
     7
 10
122.41739652189951
 20
377.91949760385933
 30
0.0
  0
SEQEND
  5
F27
  8
DATA
  6
CONTINUOUS
 62
     7
  0
LINE
  5
64B
  8
DATA
  6
CONTINUOUS
 62
     7
 10
126.3524276498292
 20
380.03788681826899
 30
0.0
 11
126.0494487273032
 21
380.34086574079498
 31
0.0
  0
POLYLINE
  5
64C
  8
DATA
  6
CONTINUOUS
 62
     7
 66
     1
 10
0.0
 20
0.0
 30
0.0
  0
VERTEX
  5
F28
  8
DATA
  6
CONTINUOUS
 62
     7
 10
121.5096913759579
 20
380.34086574079498
 30
0.0
  0
VERTEX
  5
F29
  8
DATA
  6
CONTINUOUS
 62
     7
 10
121.5096913759579
 20
380.03788681826899
 30
0.0
  0
VERTEX
  5
F2A
  8
DATA
  6
CONTINUOUS
 62
     7
 10
122.11441759937389
 20
380.03788681826899
 30
0.0
  0
VERTEX
  5
F2B
  8
DATA
  6
CONTINUOUS
 62
     7
 10
122.7203754444251
 20
380.34086574079498
 30
0.0
  0
VERTEX
  5
F2C
  8
DATA
  6
CONTINUOUS
 62
     7
 10
123.6280805903675
 20
380.64384466332092
 30
0.0
  0
SEQEND
  5
F2D
  8
DATA
  6
CONTINUOUS
 62
     7
  0
LINE
  5
654
  8
DATA
  6
CONTINUOUS
 62
     7
 10
126.0494487273036
 20
382.1562760326787
 30
0.0
 11
125.74646980477721
 21
382.4598720202203
 31
0.0
  0
POLYLINE
  5
655
  8
DATA
  6
CONTINUOUS
 62
     7
 66
     1
 10
0.0
 20
0.0
 30
0.0
 70
   128
  0
VERTEX
  5
F2E
  8
DATA
  6
CONTINUOUS
 62
     7
 10
121.20671245343151
 20
382.45925495520493
 30
0.0
  0
VERTEX
  5
F2F
  8
DATA
  6
CONTINUOUS
 62
     7
 10
120.9037335309059
 20
382.1562760326787
 30
0.0
  0
VERTEX
  5
F30
  8
DATA
  6
CONTINUOUS
 62
     7
 10
121.8126702984835
 20
382.1562760326787
 30
0.0
  0
VERTEX
  5
F31
  8
DATA
  6
CONTINUOUS
 62
     7
 10
122.41739652189951
 20
382.45925495520493
 30
0.0
  0
VERTEX
  5
F32
  8
DATA
  6
CONTINUOUS
 62
     7
 10
123.3251016678411
 20
382.76223387773081
 30
0.0
  0
VERTEX
  5
F33
  8
DATA
  6
CONTINUOUS
 62
     7
 10
123.9310595128931
 20
383.0652128002568
 30
0.0
  0
VERTEX
  5
F34
  8
DATA
  6
CONTINUOUS
 62
     7
 10
124.8387646588356
 20
383.36819172278291
 30
0.0
  0
VERTEX
  5
F35
  8
DATA
  6
CONTINUOUS
 62
     7
 10
125.4447225038876
 20
383.9741495678349
 30
0.0
  0
VERTEX
  5
F36
  8
DATA
  6
CONTINUOUS
 62
     7
 10
125.4447225038876
 20
384.88062309214052
 30
0.0
  0
SEQEND
  5
F37
  8
DATA
  6
CONTINUOUS
 62
     7
  0
POLYLINE
  5
660
  8
DATA
  6
CONTINUOUS
 62
     7
 66
     1
 10
0.0
 20
0.0
 30
0.0
  0
VERTEX
  5
F38
  8
DATA
  6
CONTINUOUS
 62
     7
 10
120.9037335309059
 20
384.57764416961447
 30
0.0
  0
VERTEX
  5
F39
  8
DATA
  6
CONTINUOUS
 62
     7
 10
120.6007546083794
 20
384.57764416961447
 30
0.0
  0
VERTEX
  5
F3A
  8
DATA
  6
CONTINUOUS
 62
     7
 10
120.6007546083794
 20
384.27466524708848
 30
0.0
  0
SEQEND
  5
F3B
  8
DATA
  6
CONTINUOUS
 62
     7
  0
POLYLINE
  5
666
  8
DATA
  6
CONTINUOUS
 62
     7
 66
     1
 10
0.0
 20
0.0
 30
0.0
  0
VERTEX
  5
F3C
  8
DATA
  6
CONTINUOUS
 62
     7
 10
121.5096913759579
 20
384.57764416961447
 30
0.0
  0
VERTEX
  5
F3D
  8
DATA
  6
CONTINUOUS
 62
     7
 10
122.11441759937389
 20
384.57764416961447
 30
0.0
  0
VERTEX
  5
F3E
  8
DATA
  6
CONTINUOUS
 62
     7
 10
123.02335436695159
 20
384.88062309214052
 30
0.0
  0
VERTEX
  5
F3F
  8
DATA
  6
CONTINUOUS
 62
     7
 10
123.6280805903675
 20
385.18360201466652
 30
0.0
  0
VERTEX
  5
F40
  8
DATA
  6
CONTINUOUS
 62
     7
 10
124.537017357946
 20
385.48658093719268
 30
0.0
  0
VERTEX
  5
F41
  8
DATA
  6
CONTINUOUS
 62
     7
 10
125.1417435813612
 20
386.09253878224467
 30
0.0
  0
VERTEX
  5
F42
  8
DATA
  6
CONTINUOUS
 62
     7
 10
125.1417435813612
 20
386.39551770477073
 30
0.0
  0
VERTEX
  5
F43
  8
DATA
  6
CONTINUOUS
 62
     7
 10
124.99071802285231
 20
386.54623567558423
 30
0.0
  0
SEQEND
  5
F44
  8
DATA
  6
CONTINUOUS
 62
     7
  0
POLYLINE
  5
671
  8
DATA
  6
CONTINUOUS
 62
     7
 66
     1
 10
0.0
 20
0.0
 30
0.0
  0
VERTEX
  5
F45
  8
DATA
  6
CONTINUOUS
 62
     7
 10
120.2990073074899
 20
386.39551770477073
 30
0.0
  0
VERTEX
  5
F46
  8
DATA
  6
CONTINUOUS
 62
     7
 10
120.6007546083794
 20
386.39551770477073
 30
0.0
  0
VERTEX
  5
F47
  8
DATA
  6
CONTINUOUS
 62
     7
 10
121.20671245343151
 20
386.69603338402419
 30
0.0
  0
VERTEX
  5
F48
  8
DATA
  6
CONTINUOUS
 62
     7
 10
121.8126702984835
 20
386.69603338402419
 30
0.0
  0
VERTEX
  5
F49
  8
DATA
  6
CONTINUOUS
 62
     7
 10
122.41739652189951
 20
386.9990123065503
 30
0.0
  0
VERTEX
  5
F4A
  8
DATA
  6
CONTINUOUS
 62
     7
 10
123.3251016678411
 20
387.30199122907618
 30
0.0
  0
VERTEX
  5
F4B
  8
DATA
  6
CONTINUOUS
 62
     7
 10
124.537017357946
 20
387.90794907412828
 30
0.0
  0
VERTEX
  5
F4C
  8
DATA
  6
CONTINUOUS
 62
     7
 10
124.83938046965361
 20
388.21092799665428
 30
0.0
  0
SEQEND
  5
F4D
  8
DATA
  6
CONTINUOUS
 62
     7
  0
LINE
  5
67C
  8
DATA
  6
CONTINUOUS
 62
     7
 10
125.1417435813612
 20
386.9990123065503
 30
0.0
 11
124.8993604433407
 21
388.21092799665428
 31
0.0
  0
POLYLINE
  5
67D
  8
DATA
  6
CONTINUOUS
 62
     7
 66
     1
 10
0.0
 20
0.0
 30
0.0
  0
VERTEX
  5
F4E
  8
DATA
  6
CONTINUOUS
 62
     7
 10
125.4447225038876
 20
384.88062309214052
 30
0.0
  0
VERTEX
  5
F4F
  8
DATA
  6
CONTINUOUS
 62
     7
 10
125.1417435813612
 20
386.39551770477073
 30
0.0
  0
VERTEX
  5
F50
  8
DATA
  6
CONTINUOUS
 62
     7
 10
124.9902541200984
 20
386.54577554439737
 30
0.0
  0
SEQEND
  5
F51
  8
DATA
  6
CONTINUOUS
 62
     7
  0
LINE
  5
683
  8
DATA
  6
CONTINUOUS
 62
     7
 10
125.74646980477721
 20
382.76223387773081
 30
0.0
 11
125.4447225038876
 21
384.27466524708848
 31
0.0
  0
POLYLINE
  5
684
  8
DATA
  6
CONTINUOUS
 62
     7
 66
     1
 10
0.0
 20
0.0
 30
0.0
 70
   128
  0
VERTEX
  5
F52
  8
DATA
  6
CONTINUOUS
 62
     7
 10
126.3524276498292
 20
380.64384466332092
 30
0.0
  0
VERTEX
  5
F53
  8
DATA
  6
CONTINUOUS
 62
     7
 10
126.0494487273036
 20
382.1562760326787
 30
0.0
  0
VERTEX
  5
F54
  8
DATA
  6
CONTINUOUS
 62
     7
 10
125.74646980477721
 20
382.45925495520493
 30
0.0
  0
SEQEND
  5
F55
  8
DATA
  6
CONTINUOUS
 62
     7
  0
POLYLINE
  5
689
  8
DATA
  6
CONTINUOUS
 62
     7
 66
     1
 10
0.0
 20
0.0
 30
0.0
 70
   128
  0
VERTEX
  5
F56
  8
DATA
  6
CONTINUOUS
 62
     7
 10
126.65540657235481
 20
378.5254554489112
 30
0.0
  0
VERTEX
  5
F57
  8
DATA
  6
CONTINUOUS
 62
     7
 10
126.3524276498292
 20
380.03788681826899
 30
0.0
  0
VERTEX
  5
F58
  8
DATA
  6
CONTINUOUS
 62
     7
 10
126.0494487273036
 20
380.34086574079498
 30
0.0
  0
SEQEND
  5
F59
  8
DATA
  6
CONTINUOUS
 62
     7
  0
LINE
  5
68E
  8
DATA
  6
CONTINUOUS
 62
     7
 10
127.1592237072973
 20
375.60534621583349
 30
0.0
 11
126.65540657235481
 21
377.61651868133322
 31
0.0
  0
LINE
  5
68F
  8
DATA
  6
CONTINUOUS
 62
     7
 10
132.70882691469501
 20
344.32085936601197
 30
0.0
 11
132.4058479921685
 21
345.53277505611618
 31
0.0
  0
LINE
  5
690
  8
DATA
  6
CONTINUOUS
 62
     7
 10
133.01180583722061
 20
341.8994912290762
 30
0.0
 11
132.70882691469501
 21
343.41438584170641
 31
0.0
  0
LINE
  5
691
  8
DATA
  6
CONTINUOUS
 62
     7
 10
133.31355313811011
 20
339.7811020146666
 30
0.0
 11
133.31355313811011
 21
341.29353338402422
 31
0.0
  0
LINE
  5
692
  8
DATA
  6
CONTINUOUS
 62
     7
 10
134.2224899056886
 20
335.544323585847
 30
0.0
 11
133.91951098316301
 21
337.05675495520472
 31
0.0
  0
LINE
  5
693
  8
DATA
  6
CONTINUOUS
 62
     7
 10
134.5254688282142
 20
333.42593437143728
 30
0.0
 11
134.2224899056886
 21
334.93836574079489
 31
0.0
  0
POLYLINE
  5
694
  8
DATA
  6
CONTINUOUS
 62
     7
 66
     1
 10
0.0
 20
0.0
 30
0.0
 70
   128
  0
VERTEX
  5
F5A
  8
DATA
  6
CONTINUOUS
 62
     7
 10
135.13019505163021
 20
331.30508191375492
 30
0.0
  0
VERTEX
  5
F5B
  8
DATA
  6
CONTINUOUS
 62
     7
 10
134.8272161291045
 20
332.81997652638518
 30
0.0
  0
VERTEX
  5
F5C
  8
DATA
  6
CONTINUOUS
 62
     7
 10
134.5254688282142
 20
333.12295544891123
 30
0.0
  0
SEQEND
  5
F5D
  8
DATA
  6
CONTINUOUS
 62
     7
  0
POLYLINE
  5
699
  8
DATA
  6
CONTINUOUS
 62
     7
 66
     1
 10
0.0
 20
0.0
 30
0.0
 70
   128
  0
VERTEX
  5
F5E
  8
DATA
  6
CONTINUOUS
 62
     7
 10
135.4331739741566
 20
329.18669269934537
 30
0.0
  0
VERTEX
  5
F5F
  8
DATA
  6
CONTINUOUS
 62
     7
 10
135.13019505163021
 20
330.70158731197569
 30
0.0
  0
VERTEX
  5
F60
  8
DATA
  6
CONTINUOUS
 62
     7
 10
134.8272161291045
 20
331.00456623450168
 30
0.0
  0
SEQEND
  5
F61
  8
DATA
  6
CONTINUOUS
 62
     7
  0
POLYLINE
  5
69E
  8
DATA
  6
CONTINUOUS
 62
     7
 66
     1
 10
0.0
 20
0.0
 30
0.0
 70
   128
  0
VERTEX
  5
F62
  8
DATA
  6
CONTINUOUS
 62
     7
 10
135.73492127504619
 20
327.0683034849356
 30
0.0
  0
VERTEX
  5
F63
  8
DATA
  6
CONTINUOUS
 62
     7
 10
135.4331739741566
 20
328.5807348542931
 30
0.0
  0
VERTEX
  5
F64
  8
DATA
  6
CONTINUOUS
 62
     7
 10
135.13019505163021
 20
328.88371377681921
 30
0.0
  0
SEQEND
  5
F65
  8
DATA
  6
CONTINUOUS
 62
     7
  0
LINE
  5
6A3
  8
DATA
  6
CONTINUOUS
 62
     7
 10
136.03790019757179
 20
324.94991427052588
 30
0.0
 11
135.73492127504619
 21
326.46234563988349
 31
0.0
  0
POLYLINE
  5
6A4
  8
DATA
  6
CONTINUOUS
 62
     7
 66
     1
 10
0.0
 20
0.0
 30
0.0
 70
   128
  0
VERTEX
  5
F66
  8
DATA
  6
CONTINUOUS
 62
     7
 10
136.6438580426246
 20
322.83152505611639
 30
0.0
  0
VERTEX
  5
F67
  8
DATA
  6
CONTINUOUS
 62
     7
 10
136.34087912009821
 20
324.34395642547378
 30
0.0
  0
VERTEX
  5
F68
  8
DATA
  6
CONTINUOUS
 62
     7
 10
136.03790019757179
 20
324.64693534799989
 30
0.0
  0
SEQEND
  5
F69
  8
DATA
  6
CONTINUOUS
 62
     7
  0
POLYLINE
  5
6A9
  8
DATA
  6
CONTINUOUS
 62
     7
 66
     1
 10
0.0
 20
0.0
 30
0.0
  0
VERTEX
  5
F6A
  8
DATA
  6
CONTINUOUS
 62
     7
 10
136.94683696515031
 20
320.7131358417065
 30
0.0
  0
VERTEX
  5
F6B
  8
DATA
  6
CONTINUOUS
 62
     7
 10
136.6438580426246
 20
322.22556721106412
 30
0.0
  0
VERTEX
  5
F6C
  8
DATA
  6
CONTINUOUS
 62
     7
 10
136.44187209427369
 20
322.42755315941491
 30
0.0
  0
SEQEND
  5
F6D
  8
DATA
  6
CONTINUOUS
 62
     7
  0
POLYLINE
  5
6AF
  8
DATA
  6
CONTINUOUS
 62
     7
 66
     1
 10
0.0
 20
0.0
 30
0.0
  0
VERTEX
  5
F6E
  8
DATA
  6
CONTINUOUS
 62
     7
 10
137.24858426603981
 20
318.59228338402409
 30
0.0
  0
VERTEX
  5
F6F
  8
DATA
  6
CONTINUOUS
 62
     7
 10
136.94683696515031
 20
320.10717799665417
 30
0.0
  0
VERTEX
  5
F70
  8
DATA
  6
CONTINUOUS
 62
     7
 10
136.79534750388731
 20
320.2586674579174
 30
0.0
  0
SEQEND
  5
F71
  8
DATA
  6
CONTINUOUS
 62
     7
  0
LINE
  5
6B5
  8
DATA
  6
CONTINUOUS
 62
     7
 10
137.55156318856621
 20
316.47389416961448
 30
0.0
 11
137.24858426603981
 21
317.98878878224463
 31
0.0
  0
POLYLINE
  5
6B6
  8
DATA
  6
CONTINUOUS
 62
     7
 66
     1
 10
0.0
 20
0.0
 30
0.0
 70
   128
  0
VERTEX
  5
F72
  8
DATA
  6
CONTINUOUS
 62
     7
 10
138.15752103361831
 20
314.35550495520471
 30
0.0
  0
VERTEX
  5
F73
  8
DATA
  6
CONTINUOUS
 62
     7
 10
137.85454211109271
 20
315.87039956783491
 30
0.0
  0
VERTEX
  5
F74
  8
DATA
  6
CONTINUOUS
 62
     7
 10
137.55156318856621
 20
316.17091524708849
 30
0.0
  0
SEQEND
  5
F75
  8
DATA
  6
CONTINUOUS
 62
     7
  0
LINE
  5
6BB
  8
DATA
  6
CONTINUOUS
 62
     7
 10
138.4592683345079
 20
312.23711574079499
 30
0.0
 11
138.15752103361831
 21
313.44656818762672
 31
0.0
  0
LINE
  5
6BC
  8
DATA
  6
CONTINUOUS
 62
     7
 10
138.76224725703429
 20
309.81574760385922
 30
0.0
 11
138.4592683345079
 21
311.32817897321678
 31
0.0
  0
LINE
  5
6BD
  8
DATA
  6
CONTINUOUS
 62
     7
 10
139.06522617955989
 20
307.69735838944962
 30
0.0
 11
138.76224725703429
 21
309.20978975880718
 31
0.0
  0
LINE
  5
6BE
  8
DATA
  6
CONTINUOUS
 62
     7
 10
138.4595763964526
 20
309.51246061938849
 30
0.0
 11
138.4592683345079
 21
309.51276868133323
 31
0.0
  0
POLYLINE
  5
6BF
  8
DATA
  6
CONTINUOUS
 62
     7
 66
     1
 10
0.0
 20
0.0
 30
0.0
  0
VERTEX
  5
F76
  8
DATA
  6
CONTINUOUS
 62
     7
 10
139.6758943574047
 20
305.5827500601211
 30
0.0
  0
VERTEX
  5
F77
  8
DATA
  6
CONTINUOUS
 62
     7
 10
139.37504256277819
 20
307.08456308370569
 30
0.0
  0
VERTEX
  5
F78
  8
DATA
  6
CONTINUOUS
 62
     7
 10
139.06522617955989
 20
307.39437946692362
 30
0.0
  0
SEQEND
  5
F79
  8
DATA
  6
CONTINUOUS
 62
     7
  0
POLYLINE
  5
6C5
  8
DATA
  6
CONTINUOUS
 62
     7
 66
     1
 10
0.0
 20
0.0
 30
0.0
 70
   128
  0
VERTEX
  5
F7A
  8
DATA
  6
CONTINUOUS
 62
     7
 10
139.97293132550149
 20
303.45811671735743
 30
0.0
  0
VERTEX
  5
F7B
  8
DATA
  6
CONTINUOUS
 62
     7
 10
139.6711840246119
 20
304.97301132998768
 30
0.0
  0
VERTEX
  5
F7C
  8
DATA
  6
CONTINUOUS
 62
     7
 10
139.36820510208631
 20
305.27599025251368
 30
0.0
  0
SEQEND
  5
F7D
  8
DATA
  6
CONTINUOUS
 62
     7
  0
LINE
  5
6CA
  8
DATA
  6
CONTINUOUS
 62
     7
 10
140.27591024802791
 20
301.33972750294771
 30
0.0
 11
139.97293132550149
 21
302.8546221155778
 31
0.0
  0
LINE
  5
6CB
  8
DATA
  6
CONTINUOUS
 62
     7
 10
146.2810729597773
 20
284.42245860115747
 30
0.0
 11
145.76294848724231
 21
285.84599388991438
 31
0.0
  0
POLYLINE
  5
6CC
  8
DATA
  6
CONTINUOUS
 62
     7
 66
     1
 10
0.0
 20
0.0
 30
0.0
 70
   128
  0
VERTEX
  5
F7E
  8
DATA
  6
CONTINUOUS
 62
     7
 10
147.5738615122483
 20
282.63865243802951
 30
0.0
  0
VERTEX
  5
F7F
  8
DATA
  6
CONTINUOUS
 62
     7
 10
146.77187246077941
 20
283.95624814075308
 30
0.0
  0
VERTEX
  5
F80
  8
DATA
  6
CONTINUOUS
 62
     7
 10
146.3846978542843
 20
284.13775154340618
 30
0.0
  0
SEQEND
  5
F81
  8
DATA
  6
CONTINUOUS
 62
     7
  0
LINE
  5
6D1
  8
DATA
  6
CONTINUOUS
 62
     7
 10
143.12680286578609
 20
280.6976320258002
 30
0.0
 11
143.64408485950409
 21
279.27641142856959
 31
0.0
  0
POLYLINE
  5
6D2
  8
DATA
  6
CONTINUOUS
 62
     7
 66
     1
 10
0.0
 20
0.0
 30
0.0
 70
   128
  0
VERTEX
  5
F82
  8
DATA
  6
CONTINUOUS
 62
     7
 10
141.83285696755141
 20
282.48101694951959
 30
0.0
  0
VERTEX
  5
F83
  8
DATA
  6
CONTINUOUS
 62
     7
 10
142.63484601902039
 20
281.16342124679579
 30
0.0
  0
VERTEX
  5
F84
  8
DATA
  6
CONTINUOUS
 62
     7
 10
143.02317797127921
 20
280.98233908355161
 30
0.0
  0
SEQEND
  5
F85
  8
DATA
  6
CONTINUOUS
 62
     7
  0
POLYLINE
  5
6D7
  8
DATA
  6
CONTINUOUS
 62
     7
 66
     1
 10
0.0
 20
0.0
 30
0.0
 70
   128
  0
VERTEX
  5
F86
  8
DATA
  6
CONTINUOUS
 62
     7
 10
135.4331739741566
 20
301.03674858042177
 30
0.0
  0
VERTEX
  5
F87
  8
DATA
  6
CONTINUOUS
 62
     7
 10
135.73492127504619
 20
299.52431721106421
 30
0.0
  0
VERTEX
  5
F88
  8
DATA
  6
CONTINUOUS
 62
     7
 10
136.03790019757179
 20
299.22133828853811
 30
0.0
  0
SEQEND
  5
F89
  8
DATA
  6
CONTINUOUS
 62
     7
  0
POLYLINE
  5
6DC
  8
DATA
  6
CONTINUOUS
 62
     7
 66
     1
 10
0.0
 20
0.0
 30
0.0
 70
   128
  0
VERTEX
  5
F8A
  8
DATA
  6
CONTINUOUS
 62
     7
 10
135.13019505163021
 20
303.15760103810402
 30
0.0
  0
VERTEX
  5
F8B
  8
DATA
  6
CONTINUOUS
 62
     7
 10
135.4331739741566
 20
301.64270642547382
 30
0.0
  0
VERTEX
  5
F8C
  8
DATA
  6
CONTINUOUS
 62
     7
 10
135.73492127504619
 20
301.33972750294771
 30
0.0
  0
SEQEND
  5
F8D
  8
DATA
  6
CONTINUOUS
 62
     7
  0
LINE
  5
6E1
  8
DATA
  6
CONTINUOUS
 62
     7
 10
134.8272161291045
 20
305.27599025251368
 30
0.0
 11
135.13019505163021
 21
303.76109563988348
 31
0.0
  0
POLYLINE
  5
6E2
  8
DATA
  6
CONTINUOUS
 62
     7
 66
     1
 10
0.0
 20
0.0
 30
0.0
 70
   128
  0
VERTEX
  5
F8E
  8
DATA
  6
CONTINUOUS
 62
     7
 10
134.2224899056886
 20
307.39437946692362
 30
0.0
  0
VERTEX
  5
F8F
  8
DATA
  6
CONTINUOUS
 62
     7
 10
134.5254688282142
 20
305.87948485429331
 30
0.0
  0
VERTEX
  5
F90
  8
DATA
  6
CONTINUOUS
 62
     7
 10
134.8272161291045
 20
305.57896917504002
 30
0.0
  0
SEQEND
  5
F91
  8
DATA
  6
CONTINUOUS
 62
     7
  0
POLYLINE
  5
6E7
  8
DATA
  6
CONTINUOUS
 62
     7
 66
     1
 10
0.0
 20
0.0
 30
0.0
 70
   128
  0
VERTEX
  5
F92
  8
DATA
  6
CONTINUOUS
 62
     7
 10
133.91951098316301
 20
309.51276868133323
 30
0.0
  0
VERTEX
  5
F93
  8
DATA
  6
CONTINUOUS
 62
     7
 10
134.2224899056886
 20
308.00033731197561
 30
0.0
  0
VERTEX
  5
F94
  8
DATA
  6
CONTINUOUS
 62
     7
 10
134.5254688282142
 20
307.69735838944962
 30
0.0
  0
SEQEND
  5
F95
  8
DATA
  6
CONTINUOUS
 62
     7
  0
POLYLINE
  5
6EC
  8
DATA
  6
CONTINUOUS
 62
     7
 66
     1
 10
0.0
 20
0.0
 30
0.0
 70
   128
  0
VERTEX
  5
F96
  8
DATA
  6
CONTINUOUS
 62
     7
 10
133.61653206063659
 20
311.63115789574277
 30
0.0
  0
VERTEX
  5
F97
  8
DATA
  6
CONTINUOUS
 62
     7
 10
133.91951098316301
 20
310.11872652638522
 30
0.0
  0
VERTEX
  5
F98
  8
DATA
  6
CONTINUOUS
 62
     7
 10
134.2224899056886
 20
309.81574760385922
 30
0.0
  0
SEQEND
  5
F99
  8
DATA
  6
CONTINUOUS
 62
     7
  0
LINE
  5
6F1
  8
DATA
  6
CONTINUOUS
 62
     7
 10
133.31355313811011
 20
313.74954711015261
 30
0.0
 11
133.31355313811011
 21
312.23711574079499
 31
0.0
  0
POLYLINE
  5
6F2
  8
DATA
  6
CONTINUOUS
 62
     7
 66
     1
 10
0.0
 20
0.0
 30
0.0
 70
   128
  0
VERTEX
  5
F9A
  8
DATA
  6
CONTINUOUS
 62
     7
 10
132.70882691469501
 20
315.87039956783491
 30
0.0
  0
VERTEX
  5
F9B
  8
DATA
  6
CONTINUOUS
 62
     7
 10
133.01180583722061
 20
314.35550495520471
 30
0.0
  0
VERTEX
  5
F9C
  8
DATA
  6
CONTINUOUS
 62
     7
 10
133.31355313811011
 20
314.05252603267871
 30
0.0
  0
SEQEND
  5
F9D
  8
DATA
  6
CONTINUOUS
 62
     7
  0
POLYLINE
  5
6F7
  8
DATA
  6
CONTINUOUS
 62
     7
 66
     1
 10
0.0
 20
0.0
 30
0.0
 70
   128
  0
VERTEX
  5
F9E
  8
DATA
  6
CONTINUOUS
 62
     7
 10
132.4058479921685
 20
317.98878878224463
 30
0.0
  0
VERTEX
  5
F9F
  8
DATA
  6
CONTINUOUS
 62
     7
 10
132.70882691469501
 20
316.47389416961448
 30
0.0
  0
VERTEX
  5
FA0
  8
DATA
  6
CONTINUOUS
 62
     7
 10
133.01180583722061
 20
316.17091524708849
 30
0.0
  0
SEQEND
  5
FA1
  8
DATA
  6
CONTINUOUS
 62
     7
  0
POLYLINE
  5
6FC
  8
DATA
  6
CONTINUOUS
 62
     7
 66
     1
 10
0.0
 20
0.0
 30
0.0
 70
   128
  0
VERTEX
  5
FA2
  8
DATA
  6
CONTINUOUS
 62
     7
 10
132.10410069127889
 20
320.10717799665417
 30
0.0
  0
VERTEX
  5
FA3
  8
DATA
  6
CONTINUOUS
 62
     7
 10
132.4058479921685
 20
318.59228338402409
 30
0.0
  0
VERTEX
  5
FA4
  8
DATA
  6
CONTINUOUS
 62
     7
 10
132.70882691469501
 20
318.29176770477062
 30
0.0
  0
SEQEND
  5
FA5
  8
DATA
  6
CONTINUOUS
 62
     7
  0
LINE
  5
701
  8
DATA
  6
CONTINUOUS
 62
     7
 10
131.80112176875249
 20
322.22556721106412
 30
0.0
 11
131.80112176875249
 21
321.0136515209598
 31
0.0
  0
POLYLINE
  5
702
  8
DATA
  6
CONTINUOUS
 62
     7
 66
     1
 10
0.0
 20
0.0
 30
0.0
 70
   128
  0
VERTEX
  5
FA6
  8
DATA
  6
CONTINUOUS
 62
     7
 10
131.19516392370051
 20
324.64693534799989
 30
0.0
  0
VERTEX
  5
FA7
  8
DATA
  6
CONTINUOUS
 62
     7
 10
131.4981428462269
 20
323.13450397864239
 30
0.0
  0
VERTEX
  5
FA8
  8
DATA
  6
CONTINUOUS
 62
     7
 10
131.80112176875249
 20
322.83152505611639
 30
0.0
  0
SEQEND
  5
FA9
  8
DATA
  6
CONTINUOUS
 62
     7
  0
LINE
  5
707
  8
DATA
  6
CONTINUOUS
 62
     7
 10
130.89218500117491
 20
326.76532456240949
 30
0.0
 11
131.19516392370051
 21
325.25289319305188
 31
0.0
  0
LINE
  5
708
  8
DATA
  6
CONTINUOUS
 62
     7
 10
130.5904377002845
 20
328.88371377681921
 30
0.0
 11
130.89218500117491
 21
327.37128240746148
 31
0.0
  0
LINE
  5
709
  8
DATA
  6
CONTINUOUS
 62
     7
 10
130.2874587777589
 20
331.00456623450168
 30
0.0
 11
130.2874587777589
 21
329.48967162187148
 31
0.0
  0
POLYLINE
  5
70A
  8
DATA
  6
CONTINUOUS
 62
     7
 66
     1
 10
0.0
 20
0.0
 30
0.0
 70
   128
  0
VERTEX
  5
FAA
  8
DATA
  6
CONTINUOUS
 62
     7
 10
129.68150093270691
 20
333.12295544891123
 30
0.0
  0
VERTEX
  5
FAB
  8
DATA
  6
CONTINUOUS
 62
     7
 10
129.98447985523319
 20
331.6080608362812
 30
0.0
  0
VERTEX
  5
FAC
  8
DATA
  6
CONTINUOUS
 62
     7
 10
130.2874587777589
 20
331.30508191375492
 30
0.0
  0
SEQEND
  5
FAD
  8
DATA
  6
CONTINUOUS
 62
     7
  0
POLYLINE
  5
70F
  8
DATA
  6
CONTINUOUS
 62
     7
 66
     1
 10
0.0
 20
0.0
 30
0.0
 70
   128
  0
VERTEX
  5
FAE
  8
DATA
  6
CONTINUOUS
 62
     7
 10
129.37975363181729
 20
335.24134466332089
 30
0.0
  0
VERTEX
  5
FAF
  8
DATA
  6
CONTINUOUS
 62
     7
 10
129.68150093270691
 20
333.72645005069091
 30
0.0
  0
VERTEX
  5
FB0
  8
DATA
  6
CONTINUOUS
 62
     7
 10
129.98447985523319
 20
333.42593437143728
 30
0.0
  0
SEQEND
  5
FB1
  8
DATA
  6
CONTINUOUS
 62
     7
  0
LINE
  5
714
  8
DATA
  6
CONTINUOUS
 62
     7
 10
129.0767747092909
 20
337.35973387773089
 30
0.0
 11
129.37975363181729
 21
335.84730250837288
 31
0.0
  0
LINE
  5
715
  8
DATA
  6
CONTINUOUS
 62
     7
 10
128.47081686423891
 20
339.47812309214061
 30
0.0
 11
128.77379578676531
 21
337.96569172278282
 31
0.0
  0
POLYLINE
  5
716
  8
DATA
  6
CONTINUOUS
 62
     7
 66
     1
 10
0.0
 20
0.0
 30
0.0
 70
   128
  0
VERTEX
  5
FB2
  8
DATA
  6
CONTINUOUS
 62
     7
 10
128.16783794171241
 20
341.59651230655032
 30
0.0
  0
VERTEX
  5
FB3
  8
DATA
  6
CONTINUOUS
 62
     7
 10
128.47081686423891
 20
340.0840809371926
 30
0.0
  0
VERTEX
  5
FB4
  8
DATA
  6
CONTINUOUS
 62
     7
 10
128.77379578676531
 20
339.7811020146666
 30
0.0
  0
SEQEND
  5
FB5
  8
DATA
  6
CONTINUOUS
 62
     7
  0
POLYLINE
  5
71B
  8
DATA
  6
CONTINUOUS
 62
     7
 66
     1
 10
0.0
 20
0.0
 30
0.0
 70
   128
  0
VERTEX
  5
FB6
  8
DATA
  6
CONTINUOUS
 62
     7
 10
127.8660906408228
 20
343.71490152095993
 30
0.0
  0
VERTEX
  5
FB7
  8
DATA
  6
CONTINUOUS
 62
     7
 10
128.16783794171241
 20
342.20247015160231
 30
0.0
  0
VERTEX
  5
FB8
  8
DATA
  6
CONTINUOUS
 62
     7
 10
128.47081686423891
 20
341.8994912290762
 30
0.0
  0
SEQEND
  5
FB9
  8
DATA
  6
CONTINUOUS
 62
     7
  0
LINE
  5
720
  8
DATA
  6
CONTINUOUS
 62
     7
 10
127.56311171829719
 20
345.83575397864217
 30
0.0
 11
127.8660906408228
 21
344.32085936601197
 31
0.0
  0
POLYLINE
  5
721
  8
DATA
  6
CONTINUOUS
 62
     7
 66
     1
 10
0.0
 20
0.0
 30
0.0
 70
   128
  0
VERTEX
  5
FBA
  8
DATA
  6
CONTINUOUS
 62
     7
 10
126.9583854948812
 20
347.954143193052
 30
0.0
  0
VERTEX
  5
FBB
  8
DATA
  6
CONTINUOUS
 62
     7
 10
127.2601327957708
 20
346.43924858042169
 30
0.0
  0
VERTEX
  5
FBC
  8
DATA
  6
CONTINUOUS
 62
     7
 10
127.56311171829719
 20
346.13873290116828
 30
0.0
  0
SEQEND
  5
FBD
  8
DATA
  6
CONTINUOUS
 62
     7
  0
POLYLINE
  5
726
  8
DATA
  6
CONTINUOUS
 62
     7
 66
     1
 10
0.0
 20
0.0
 30
0.0
 70
   128
  0
VERTEX
  5
FBE
  8
DATA
  6
CONTINUOUS
 62
     7
 10
126.65540657235481
 20
350.07253240746172
 30
0.0
  0
VERTEX
  5
FBF
  8
DATA
  6
CONTINUOUS
 62
     7
 10
126.9583854948812
 20
348.56010103810411
 30
0.0
  0
VERTEX
  5
FC0
  8
DATA
  6
CONTINUOUS
 62
     7
 10
127.2601327957708
 20
348.257122115578
 30
0.0
  0
SEQEND
  5
FC1
  8
DATA
  6
CONTINUOUS
 62
     7
  0
POLYLINE
  5
72B
  8
DATA
  6
CONTINUOUS
 62
     7
 66
     1
 10
0.0
 20
0.0
 30
0.0
 70
   128
  0
VERTEX
  5
FC2
  8
DATA
  6
CONTINUOUS
 62
     7
 10
126.3524276498292
 20
352.19092162187133
 30
0.0
  0
VERTEX
  5
FC3
  8
DATA
  6
CONTINUOUS
 62
     7
 10
126.65540657235481
 20
350.6784902525136
 30
0.0
  0
VERTEX
  5
FC4
  8
DATA
  6
CONTINUOUS
 62
     7
 10
126.9583854948812
 20
350.37551132998772
 30
0.0
  0
SEQEND
  5
FC5
  8
DATA
  6
CONTINUOUS
 62
     7
  0
POLYLINE
  5
730
  8
DATA
  6
CONTINUOUS
 62
     7
 66
     1
 10
0.0
 20
0.0
 30
0.0
 70
   128
  0
VERTEX
  5
FC6
  8
DATA
  6
CONTINUOUS
 62
     7
 10
122.11441759937389
 20
375.8011083894495
 30
0.0
  0
VERTEX
  5
FC7
  8
DATA
  6
CONTINUOUS
 62
     7
 10
122.41739652189951
 20
374.28621377681941
 30
0.0
  0
VERTEX
  5
FC8
  8
DATA
  6
CONTINUOUS
 62
     7
 10
122.7203754444251
 20
373.98323485429319
 30
0.0
  0
SEQEND
  5
FC9
  8
DATA
  6
CONTINUOUS
 62
     7
  0
POLYLINE
  5
735
  8
DATA
  6
CONTINUOUS
 62
     7
 66
     1
 10
0.0
 20
0.0
 30
0.0
 70
   128
  0
VERTEX
  5
FCA
  8
DATA
  6
CONTINUOUS
 62
     7
 10
121.8126702984835
 20
377.91949760385933
 30
0.0
  0
VERTEX
  5
FCB
  8
DATA
  6
CONTINUOUS
 62
     7
 10
122.11441759937389
 20
376.40706623450171
 30
0.0
  0
VERTEX
  5
FCC
  8
DATA
  6
CONTINUOUS
 62
     7
 10
122.41739652189951
 20
376.10408731197538
 30
0.0
  0
SEQEND
  5
FCD
  8
DATA
  6
CONTINUOUS
 62
     7
  0
LINE
  5
73A
  8
DATA
  6
CONTINUOUS
 62
     7
 10
121.5096913759579
 20
380.03788681826899
 30
0.0
 11
121.5096913759579
 21
378.5254554489112
 31
0.0
  0
POLYLINE
  5
73B
  8
DATA
  6
CONTINUOUS
 62
     7
 66
     1
 10
0.0
 20
0.0
 30
0.0
 70
   128
  0
VERTEX
  5
FCE
  8
DATA
  6
CONTINUOUS
 62
     7
 10
120.9037335309059
 20
382.1562760326787
 30
0.0
  0
VERTEX
  5
FCF
  8
DATA
  6
CONTINUOUS
 62
     7
 10
121.20671245343151
 20
380.64384466332092
 30
0.0
  0
VERTEX
  5
FD0
  8
DATA
  6
CONTINUOUS
 62
     7
 10
121.5096913759579
 20
380.34086574079498
 30
0.0
  0
SEQEND
  5
FD1
  8
DATA
  6
CONTINUOUS
 62
     7
  0
POLYLINE
  5
740
  8
DATA
  6
CONTINUOUS
 62
     7
 66
     1
 10
0.0
 20
0.0
 30
0.0
 70
   128
  0
VERTEX
  5
FD2
  8
DATA
  6
CONTINUOUS
 62
     7
 10
120.6007546083794
 20
384.27466524708848
 30
0.0
  0
VERTEX
  5
FD3
  8
DATA
  6
CONTINUOUS
 62
     7
 10
120.9037335309059
 20
382.76223387773081
 30
0.0
  0
VERTEX
  5
FD4
  8
DATA
  6
CONTINUOUS
 62
     7
 10
121.20671245343151
 20
382.45925495520493
 30
0.0
  0
SEQEND
  5
FD5
  8
DATA
  6
CONTINUOUS
 62
     7
  0
LINE
  5
745
  8
DATA
  6
CONTINUOUS
 62
     7
 10
120.2990073074899
 20
386.39551770477073
 30
0.0
 11
120.6007546083794
 21
385.18360201466652
 31
0.0
  0
LINE
  5
746
  8
DATA
  6
CONTINUOUS
 62
     7
 10
126.0494487273036
 20
379.73490789574299
 30
0.0
 11
126.0494487273036
 21
379.73521611438292
 31
0.0
  0
POLYLINE
  5
747
  8
DATA
  6
CONTINUOUS
 62
     7
 66
     1
 10
0.0
 20
0.0
 30
0.0
 70
   128
  0
VERTEX
  5
FD6
  8
DATA
  6
CONTINUOUS
 62
     7
 10
131.4981428462269
 20
349.76955348493561
 30
0.0
  0
VERTEX
  5
FD7
  8
DATA
  6
CONTINUOUS
 62
     7
 10
131.4981428462269
 20
350.07253240746172
 30
0.0
  0
VERTEX
  5
FD8
  8
DATA
  6
CONTINUOUS
 62
     7
 10
131.4981428462269
 20
350.37551132998772
 30
0.0
  0
SEQEND
  5
FD9
  8
DATA
  6
CONTINUOUS
 62
     7
  0
LINE
  5
74C
  8
DATA
  6
CONTINUOUS
 62
     7
 10
131.80112176875249
 20
347.954143193052
 30
0.0
 11
131.80112176875249
 21
348.257122115578
 31
0.0
  0
LINE
  5
74D
  8
DATA
  6
CONTINUOUS
 62
     7
 10
132.4058479921685
 20
343.71490152095993
 30
0.0
 11
132.40564272303121
 21
343.71510762793042
 31
0.0
  0
POLYLINE
  5
74E
  8
DATA
  6
CONTINUOUS
 62
     7
 66
     1
 10
0.0
 20
0.0
 30
0.0
  0
VERTEX
  5
FDA
  8
DATA
  6
CONTINUOUS
 62
     7
 10
133.01180583722061
 20
341.59589524153512
 30
0.0
  0
VERTEX
  5
FDB
  8
DATA
  6
CONTINUOUS
 62
     7
 10
133.01180583722061
 20
341.59651230655032
 30
0.0
  0
VERTEX
  5
FDC
  8
DATA
  6
CONTINUOUS
 62
     7
 10
133.01180583722061
 20
341.8994912290762
 30
0.0
  0
SEQEND
  5
FDD
  8
DATA
  6
CONTINUOUS
 62
     7
  0
POLYLINE
  5
754
  8
DATA
  6
CONTINUOUS
 62
     7
 66
     1
 10
0.0
 20
0.0
 30
0.0
 70
   128
  0
VERTEX
  5
FDE
  8
DATA
  6
CONTINUOUS
 62
     7
 10
133.31355313811011
 20
339.17514416961438
 30
0.0
  0
VERTEX
  5
FDF
  8
DATA
  6
CONTINUOUS
 62
     7
 10
133.31355313811011
 20
339.47812309214061
 30
0.0
  0
VERTEX
  5
FE0
  8
DATA
  6
CONTINUOUS
 62
     7
 10
133.31355313811011
 20
339.7811020146666
 30
0.0
  0
SEQEND
  5
FE1
  8
DATA
  6
CONTINUOUS
 62
     7
  0
POLYLINE
  5
759
  8
DATA
  6
CONTINUOUS
 62
     7
 66
     1
 10
0.0
 20
0.0
 30
0.0
  0
VERTEX
  5
FE2
  8
DATA
  6
CONTINUOUS
 62
     7
 10
134.5254688282142
 20
333.12233838389648
 30
0.0
  0
VERTEX
  5
FE3
  8
DATA
  6
CONTINUOUS
 62
     7
 10
134.5254688282142
 20
333.12295544891123
 30
0.0
  0
VERTEX
  5
FE4
  8
DATA
  6
CONTINUOUS
 62
     7
 10
134.5254688282142
 20
333.42593437143728
 30
0.0
  0
SEQEND
  5
FE5
  8
DATA
  6
CONTINUOUS
 62
     7
  0
LINE
  5
75F
  8
DATA
  6
CONTINUOUS
 62
     7
 10
134.8272161291045
 20
331.00292518640612
 30
0.0
 11
134.8272161291045
 21
331.00456623450168
 31
0.0
  0
LINE
  5
760
  8
DATA
  6
CONTINUOUS
 62
     7
 10
135.13019505163021
 20
328.88371377681921
 30
0.0
 11
135.13019505163021
 21
328.88412487440712
 31
0.0
  0
LINE
  5
761
  8
DATA
  6
CONTINUOUS
 62
     7
 10
136.03790019757179
 20
324.64693534799989
 30
0.0
 11
136.03790019757179
 21
324.94991427052588
 31
0.0
  0
LINE
  5
762
  8
DATA
  6
CONTINUOUS
 62
     7
 10
138.15752103361831
 20
311.32817897321678
 30
0.0
 11
138.15752103361831
 21
311.3287960382321
 31
0.0
  0
POLYLINE
  5
763
  8
DATA
  6
CONTINUOUS
 62
     7
 66
     1
 10
0.0
 20
0.0
 30
0.0
 70
   128
  0
VERTEX
  5
FE6
  8
DATA
  6
CONTINUOUS
 62
     7
 10
138.76224725703429
 20
309.20978975880718
 30
0.0
  0
VERTEX
  5
FE7
  8
DATA
  6
CONTINUOUS
 62
     7
 10
138.76224725703429
 20
309.51276868133323
 30
0.0
  0
VERTEX
  5
FE8
  8
DATA
  6
CONTINUOUS
 62
     7
 10
138.76224725703429
 20
309.81574760385922
 30
0.0
  0
SEQEND
  5
FE9
  8
DATA
  6
CONTINUOUS
 62
     7
  0
LINE
  5
768
  8
DATA
  6
CONTINUOUS
 62
     7
 10
139.06522617955989
 20
307.39437946692362
 30
0.0
 11
139.06522617955989
 21
307.69735838944962
 31
0.0
  0
LINE
  5
769
  8
DATA
  6
CONTINUOUS
 62
     7
 10
139.36820510208631
 20
305.2753738152353
 30
0.0
 11
139.36820510208631
 21
305.27599025251368
 31
0.0
  0
LINE
  5
76A
  8
DATA
  6
CONTINUOUS
 62
     7
 10
140.27591024802791
 20
301.03674858042177
 30
0.0
 11
140.27591024802791
 21
301.33972750294771
 31
0.0
  0
POLYLINE
  5
76B
  8
DATA
  6
CONTINUOUS
 62
     7
 66
     1
 10
0.0
 20
0.0
 30
0.0
  0
VERTEX
  5
FEA
  8
DATA
  6
CONTINUOUS
 62
     7
 10
146.38490890294941
 20
284.1371716919644
 30
0.0
  0
VERTEX
  5
FEB
  8
DATA
  6
CONTINUOUS
 62
     7
 10
146.3846978542843
 20
284.13775154340618
 30
0.0
  0
VERTEX
  5
FEC
  8
DATA
  6
CONTINUOUS
 62
     7
 10
146.2810729597773
 20
284.42245860115747
 30
0.0
  0
SEQEND
  5
FED
  8
DATA
  6
CONTINUOUS
 62
     7
  0
LINE
  5
771
  8
DATA
  6
CONTINUOUS
 62
     7
 10
147.39306055631641
 20
282.249547875031
 30
0.0
 11
147.39277934900429
 21
282.25032048577128
 31
0.0
  0
POLYLINE
  5
772
  8
DATA
  6
CONTINUOUS
 62
     7
 66
     1
 10
0.0
 20
0.0
 30
0.0
  0
VERTEX
  5
FEE
  8
DATA
  6
CONTINUOUS
 62
     7
 10
143.02317797127921
 20
280.98233908355161
 30
0.0
  0
VERTEX
  5
FEF
  8
DATA
  6
CONTINUOUS
 62
     7
 10
143.12680286578609
 20
280.6976320258002
 30
0.0
  0
VERTEX
  5
FF0
  8
DATA
  6
CONTINUOUS
 62
     7
 10
143.23042776029311
 20
280.41292496804891
 30
0.0
  0
SEQEND
  5
FF1
  8
DATA
  6
CONTINUOUS
 62
     7
  0
LINE
  5
778
  8
DATA
  6
CONTINUOUS
 62
     7
 10
135.73492127504619
 20
301.33972750294771
 30
0.0
 11
135.73492127504619
 21
301.03674858042177
 31
0.0
  0
LINE
  5
779
  8
DATA
  6
CONTINUOUS
 62
     7
 10
135.13019505163021
 20
303.76109563988348
 30
0.0
 11
135.4331739741566
 21
303.15760103810402
 31
0.0
  0
LINE
  5
77A
  8
DATA
  6
CONTINUOUS
 62
     7
 10
134.8272161291045
 20
305.57896917504002
 30
0.0
 11
134.8272161291045
 21
305.27599025251368
 31
0.0
  0
LINE
  5
77B
  8
DATA
  6
CONTINUOUS
 62
     7
 10
134.5254688282142
 20
307.69735838944951
 30
0.0
 11
134.5254688282142
 21
307.39437946692362
 31
0.0
  0
LINE
  5
77C
  8
DATA
  6
CONTINUOUS
 62
     7
 10
134.2224899056886
 20
309.81574760385922
 30
0.0
 11
134.2224899056886
 21
309.51276868133323
 31
0.0
  0
LINE
  5
77D
  8
DATA
  6
CONTINUOUS
 62
     7
 10
133.61653206063659
 20
312.23711574079499
 30
0.0
 11
133.91951098316301
 21
311.63115789574277
 31
0.0
  0
POLYLINE
  5
77E
  8
DATA
  6
CONTINUOUS
 62
     7
 66
     1
 10
0.0
 20
0.0
 30
0.0
  0
VERTEX
  5
FF2
  8
DATA
  6
CONTINUOUS
 62
     7
 10
133.31355313811011
 20
314.05252603267871
 30
0.0
  0
VERTEX
  5
FF3
  8
DATA
  6
CONTINUOUS
 62
     7
 10
133.31355313811011
 20
313.74954711015261
 30
0.0
  0
VERTEX
  5
FF4
  8
DATA
  6
CONTINUOUS
 62
     7
 10
133.31355313811011
 20
313.44656818762672
 30
0.0
  0
SEQEND
  5
FF5
  8
DATA
  6
CONTINUOUS
 62
     7
  0
POLYLINE
  5
784
  8
DATA
  6
CONTINUOUS
 62
     7
 66
     1
 10
0.0
 20
0.0
 30
0.0
  0
VERTEX
  5
FF6
  8
DATA
  6
CONTINUOUS
 62
     7
 10
132.10410069127889
 20
320.7131358417065
 30
0.0
  0
VERTEX
  5
FF7
  8
DATA
  6
CONTINUOUS
 62
     7
 10
132.4058479921685
 20
320.41015691918039
 30
0.0
  0
VERTEX
  5
FF8
  8
DATA
  6
CONTINUOUS
 62
     7
 10
132.5573374534317
 20
320.2586674579174
 30
0.0
  0
SEQEND
  5
FF9
  8
DATA
  6
CONTINUOUS
 62
     7
  0
POLYLINE
  5
78A
  8
DATA
  6
CONTINUOUS
 62
     7
 66
     1
 10
0.0
 20
0.0
 30
0.0
  0
VERTEX
  5
FFA
  8
DATA
  6
CONTINUOUS
 62
     7
 10
131.80112176875249
 20
322.83152505611628
 30
0.0
  0
VERTEX
  5
FFB
  8
DATA
  6
CONTINUOUS
 62
     7
 10
131.80112176875249
 20
322.52854613359023
 30
0.0
  0
VERTEX
  5
FFC
  8
DATA
  6
CONTINUOUS
 62
     7
 10
131.80112176875249
 20
322.22556721106412
 30
0.0
  0
SEQEND
  5
FFD
  8
DATA
  6
CONTINUOUS
 62
     7
  0
LINE
  5
790
  8
DATA
  6
CONTINUOUS
 62
     7
 10
130.89218500117491
 20
327.37128240746148
 30
0.0
 11
131.19516392370051
 21
326.76532456240949
 31
0.0
  0
LINE
  5
791
  8
DATA
  6
CONTINUOUS
 62
     7
 10
130.5904377002845
 20
329.48967162187148
 30
0.0
 11
130.89218500117491
 21
328.88371377681921
 31
0.0
  0
POLYLINE
  5
792
  8
DATA
  6
CONTINUOUS
 62
     7
 66
     1
 10
0.0
 20
0.0
 30
0.0
  0
VERTEX
  5
FFE
  8
DATA
  6
CONTINUOUS
 62
     7
 10
130.2874587777589
 20
331.30508191375509
 30
0.0
  0
VERTEX
  5
FFF
  8
DATA
  6
CONTINUOUS
 62
     7
 10
130.2874587777589
 20
331.00456623450168
 30
0.0
  0
VERTEX
  5
1000
  8
DATA
  6
CONTINUOUS
 62
     7
 10
130.2874587777589
 20
330.70158731197569
 30
0.0
  0
SEQEND
  5
1001
  8
DATA
  6
CONTINUOUS
 62
     7
  0
LINE
  5
798
  8
DATA
  6
CONTINUOUS
 62
     7
 10
129.98447985523319
 20
333.42593437143728
 30
0.0
 11
129.98447985523319
 21
333.12295544891123
 31
0.0
  0
LINE
  5
799
  8
DATA
  6
CONTINUOUS
 62
     7
 10
129.37975363181729
 20
335.84730250837288
 30
0.0
 11
129.68150093270691
 21
335.24134466332089
 31
0.0
  0
LINE
  5
79A
  8
DATA
  6
CONTINUOUS
 62
     7
 10
129.0767747092909
 20
337.96569172278282
 30
0.0
 11
129.37975363181729
 21
337.35973387773089
 31
0.0
  0
LINE
  5
79B
  8
DATA
  6
CONTINUOUS
 62
     7
 10
128.77379578676531
 20
339.7811020146666
 30
0.0
 11
128.77379578676531
 21
339.47812309214061
 31
0.0
  0
LINE
  5
79C
  8
DATA
  6
CONTINUOUS
 62
     7
 10
128.47081686423891
 20
341.8994912290762
 30
0.0
 11
128.47081686423891
 21
341.59651230655032
 31
0.0
  0
LINE
  5
79D
  8
DATA
  6
CONTINUOUS
 62
     7
 10
127.8660906408228
 20
344.32085936601197
 30
0.0
 11
128.16783794171241
 21
343.71490152095993
 31
0.0
  0
POLYLINE
  5
79E
  8
DATA
  6
CONTINUOUS
 62
     7
 66
     1
 10
0.0
 20
0.0
 30
0.0
  0
VERTEX
  5
1002
  8
DATA
  6
CONTINUOUS
 62
     7
 10
127.2601327957708
 20
348.257122115578
 30
0.0
  0
VERTEX
  5
1003
  8
DATA
  6
CONTINUOUS
 62
     7
 10
127.2601327957708
 20
347.954143193052
 30
0.0
  0
VERTEX
  5
1004
  8
DATA
  6
CONTINUOUS
 62
     7
 10
127.2601327957708
 20
347.65116427052601
 30
0.0
  0
SEQEND
  5
1005
  8
DATA
  6
CONTINUOUS
 62
     7
  0
LINE
  5
7A4
  8
DATA
  6
CONTINUOUS
 62
     7
 10
122.7203754444251
 20
373.98323485429319
 30
0.0
 11
122.7203754444251
 21
373.68271917503972
 31
0.0
  0
LINE
  5
7A5
  8
DATA
  6
CONTINUOUS
 62
     7
 10
121.8126702984835
 20
378.5254554489112
 30
0.0
 11
122.0138351657438
 21
378.12148355220978
 31
0.0
  0
POLYLINE
  5
7A6
  8
DATA
  6
CONTINUOUS
 62
     7
 66
     1
 10
0.0
 20
0.0
 30
0.0
  0
VERTEX
  5
1006
  8
DATA
  6
CONTINUOUS
 62
     7
 10
121.5096913759579
 20
380.34086574079498
 30
0.0
  0
VERTEX
  5
1007
  8
DATA
  6
CONTINUOUS
 62
     7
 10
121.5096913759579
 20
380.03788681826899
 30
0.0
  0
VERTEX
  5
1008
  8
DATA
  6
CONTINUOUS
 62
     7
 10
121.5096913759579
 20
379.73490789574299
 30
0.0
  0
SEQEND
  5
1009
  8
DATA
  6
CONTINUOUS
 62
     7
  0
LINE
  5
7AC
  8
DATA
  6
CONTINUOUS
 62
     7
 10
120.6007546083794
 20
384.88062309214052
 30
0.0
 11
120.9037335309059
 21
384.57764416961447
 31
0.0
  0
POLYLINE
  5
7AD
  8
DATA
  6
CONTINUOUS
 62
     7
 66
     1
 10
0.0
 20
0.0
 30
0.0
 70
   128
  0
VERTEX
  5
100A
  8
DATA
  6
CONTINUOUS
 62
     7
 10
124.8387646588356
 20
388.21092799665428
 30
0.0
  0
VERTEX
  5
100B
  8
DATA
  6
CONTINUOUS
 62
     7
 10
123.3251016678411
 20
387.6049701516024
 30
0.0
  0
VERTEX
  5
100C
  8
DATA
  6
CONTINUOUS
 62
     7
 10
121.5096913759579
 20
387.30199122907618
 30
0.0
  0
VERTEX
  5
100D
  8
DATA
  6
CONTINUOUS
 62
     7
 10
119.99602838496349
 20
387.30199122907618
 30
0.0
  0
VERTEX
  5
100E
  8
DATA
  6
CONTINUOUS
 62
     7
 10
119.6930494624379
 20
387.30199122907618
 30
0.0
  0
SEQEND
  5
100F
  8
DATA
  6
CONTINUOUS
 62
     7
  0
LINE
  5
7B4
  8
DATA
  6
CONTINUOUS
 62
     7
 10
119.3913021615483
 20
387.90794907412828
 30
0.0
 11
119.3913021615483
 21
387.6049701516024
 31
0.0
  0
POLYLINE
  5
7B5
  8
DATA
  6
CONTINUOUS
 62
     7
 66
     1
 10
0.0
 20
0.0
 30
0.0
 70
   128
  0
VERTEX
  5
1010
  8
DATA
  6
CONTINUOUS
 62
     7
 10
117.5746602480282
 20
396.38396917503968
 30
0.0
  0
VERTEX
  5
1011
  8
DATA
  6
CONTINUOUS
 62
     7
 10
119.3913021615483
 20
387.90794907412828
 30
0.0
  0
VERTEX
  5
1012
  8
DATA
  6
CONTINUOUS
 62
     7
 10
119.3913021615483
 20
387.6049701516024
 30
0.0
  0
SEQEND
  5
1013
  8
DATA
  6
CONTINUOUS
 62
     7
  0
POLYLINE
  5
7BA
  8
DATA
  6
CONTINUOUS
 62
     7
 66
     1
 10
0.0
 20
0.0
 30
0.0
 70
   128
  0
VERTEX
  5
1014
  8
DATA
  6
CONTINUOUS
 62
     7
 10
125.4447225038876
 20
388.81688584170649
 30
0.0
  0
VERTEX
  5
1015
  8
DATA
  6
CONTINUOUS
 62
     7
 10
124.23403843541961
 20
397.59342162187141
 30
0.0
  0
VERTEX
  5
1016
  8
DATA
  6
CONTINUOUS
 62
     7
 10
124.23403843541961
 20
397.89640054439752
 30
0.0
  0
SEQEND
  5
1017
  8
DATA
  6
CONTINUOUS
 62
     7
  0
LINE
  5
7BF
  8
DATA
  6
CONTINUOUS
 62
     7
 10
117.5746602480282
 20
396.6844848542932
 30
0.0
 11
117.5746602480282
 21
396.38396917503968
 31
0.0
  0
LINE
  5
7C0
  8
DATA
  6
CONTINUOUS
 62
     7
 10
124.23403843541961
 20
397.59342162187141
 30
0.0
 11
124.23403843541961
 21
397.89640054439752
 31
0.0
  0
LINE
  5
7C1
  8
DATA
  6
CONTINUOUS
 62
     7
 10
124.8387646588356
 20
388.21092799665428
 30
0.0
 11
124.8993604433407
 21
388.21092799665428
 31
0.0
  0
POLYLINE
  5
7C2
  8
DATA
  6
CONTINUOUS
 62
     7
 66
     1
 10
0.0
 20
0.0
 30
0.0
  0
VERTEX
  5
1018
  8
DATA
  6
CONTINUOUS
 62
     7
 10
119.3913021615483
 20
387.90794907412828
 30
0.0
  0
VERTEX
  5
1019
  8
DATA
  6
CONTINUOUS
 62
     7
 10
119.3913021615483
 20
387.6049701516024
 30
0.0
  0
VERTEX
  5
101A
  8
DATA
  6
CONTINUOUS
 62
     7
 10
119.6930494624379
 20
387.30199122907618
 30
0.0
  0
SEQEND
  5
101B
  8
DATA
  6
CONTINUOUS
 62
     7
  0
POLYLINE
  5
7C8
  8
DATA
  6
CONTINUOUS
 62
     7
 66
     1
 10
0.0
 20
0.0
 30
0.0
  0
VERTEX
  5
101C
  8
DATA
  6
CONTINUOUS
 62
     7
 10
154.29950087693149
 20
274.7795203719495
 30
0.0
  0
VERTEX
  5
101D
  8
DATA
  6
CONTINUOUS
 62
     7
 10
153.9384938962057
 20
274.00327770684129
 30
0.0
  0
VERTEX
  5
101E
  8
DATA
  6
CONTINUOUS
 62
     7
 10
152.72336574222641
 20
272.91616035821232
 30
0.0
  0
VERTEX
  5
101F
  8
DATA
  6
CONTINUOUS
 62
     7
 10
148.94734628119309
 20
270.8995761293632
 30
0.0
  0
VERTEX
  5
1020
  8
DATA
  6
CONTINUOUS
 62
     7
 10
147.5261256839627
 20
270.38229413564528
 30
0.0
  0
SEQEND
  5
1021
  8
DATA
  6
CONTINUOUS
 62
     7
  0
POLYLINE
  5
7D0
  8
DATA
  6
CONTINUOUS
 62
     7
 66
     1
 10
0.0
 20
0.0
 30
0.0
  0
VERTEX
  5
1022
  8
DATA
  6
CONTINUOUS
 62
     7
 10
154.6103755604525
 20
273.92539919869557
 30
0.0
  0
VERTEX
  5
1023
  8
DATA
  6
CONTINUOUS
 62
     7
 10
154.53407563747851
 20
273.25278142809441
 30
0.0
  0
VERTEX
  5
1024
  8
DATA
  6
CONTINUOUS
 62
     7
 10
153.3181050046812
 20
272.16797877099128
 30
0.0
  0
VERTEX
  5
1025
  8
DATA
  6
CONTINUOUS
 62
     7
 10
151.53356273519901
 20
270.87361163334822
 30
0.0
  0
VERTEX
  5
1026
  8
DATA
  6
CONTINUOUS
 62
     7
 10
149.64655291697281
 20
269.86437279286503
 30
0.0
  0
VERTEX
  5
1027
  8
DATA
  6
CONTINUOUS
 62
     7
 10
147.83700036748371
 20
269.52817296239118
 30
0.0
  0
VERTEX
  5
1028
  8
DATA
  6
CONTINUOUS
 62
     7
 10
147.16396135747391
 20
269.6056302311286
 30
0.0
  0
SEQEND
  5
1029
  8
DATA
  6
CONTINUOUS
 62
     7
  0
POLYLINE
  5
7DA
  8
DATA
  6
CONTINUOUS
 62
     7
 66
     1
 10
0.0
 20
0.0
 30
0.0
  0
VERTEX
  5
102A
  8
DATA
  6
CONTINUOUS
 62
     7
 10
155.90432145868709
 20
272.14201427497642
 30
0.0
  0
VERTEX
  5
102B
  8
DATA
  6
CONTINUOUS
 62
     7
 10
155.5421571321985
 20
271.36535037045962
 30
0.0
  0
VERTEX
  5
102C
  8
DATA
  6
CONTINUOUS
 62
     7
 10
154.327028978219
 20
270.27823302183049
 30
0.0
  0
VERTEX
  5
102D
  8
DATA
  6
CONTINUOUS
 62
     7
 10
150.55216686294881
 20
268.26207003239
 30
0.0
  0
VERTEX
  5
102E
  8
DATA
  6
CONTINUOUS
 62
     7
 10
148.8450818622035
 20
267.6407419047564
 30
0.0
  0
VERTEX
  5
102F
  8
DATA
  6
CONTINUOUS
 62
     7
 10
148.17320019795761
 20
267.71862041290251
 30
0.0
  0
SEQEND
  5
1030
  8
DATA
  6
CONTINUOUS
 62
     7
  0
POLYLINE
  5
7E3
  8
DATA
  6
CONTINUOUS
 62
     7
 66
     1
 10
0.0
 20
0.0
 30
0.0
  0
VERTEX
  5
1031
  8
DATA
  6
CONTINUOUS
 62
     7
 10
156.8099354046638
 20
270.53971151450179
 30
0.0
  0
VERTEX
  5
1032
  8
DATA
  6
CONTINUOUS
 62
     7
 10
156.4477710781743
 20
269.76304760998471
 30
0.0
  0
VERTEX
  5
1033
  8
DATA
  6
CONTINUOUS
 62
     7
 10
155.23264292419501
 20
268.6759302613554
 30
0.0
  0
VERTEX
  5
1034
  8
DATA
  6
CONTINUOUS
 62
     7
 10
151.4586232877426
 20
266.65745258038879
 30
0.0
  0
VERTEX
  5
1035
  8
DATA
  6
CONTINUOUS
 62
     7
 10
150.03624534474909
 20
266.13974934726241
 30
0.0
  0
VERTEX
  5
1036
  8
DATA
  6
CONTINUOUS
 62
     7
 10
149.07965662275069
 20
266.11400296090108
 30
0.0
  0
SEQEND
  5
1037
  8
DATA
  6
CONTINUOUS
 62
     7
  0
POLYLINE
  5
7EC
  8
DATA
  6
CONTINUOUS
 62
     7
 66
     1
 10
0.0
 20
0.0
 30
0.0
  0
VERTEX
  5
1038
  8
DATA
  6
CONTINUOUS
 62
     7
 10
152.80270148318201
 20
266.50443149503189
 30
0.0
  0
VERTEX
  5
1039
  8
DATA
  6
CONTINUOUS
 62
     7
 10
150.914534319192
 20
265.49477141513989
 30
0.0
  0
VERTEX
  5
103A
  8
DATA
  6
CONTINUOUS
 62
     7
 10
150.630984607204
 20
265.3915677600416
 30
0.0
  0
SEQEND
  5
103B
  8
DATA
  6
CONTINUOUS
 62
     7
  0
POLYLINE
  5
7F2
  8
DATA
  6
CONTINUOUS
 62
     7
 66
     1
 10
0.0
 20
0.0
 30
0.0
  0
VERTEX
  5
103C
  8
DATA
  6
CONTINUOUS
 62
     7
 10
157.61160958918691
 20
269.21937988084312
 30
0.0
  0
VERTEX
  5
103D
  8
DATA
  6
CONTINUOUS
 62
     7
 10
157.2497601296441
 20
268.4454519072612
 30
0.0
  0
VERTEX
  5
103E
  8
DATA
  6
CONTINUOUS
 62
     7
 10
156.0346319756639
 20
267.35833455863173
 30
0.0
  0
VERTEX
  5
103F
  8
DATA
  6
CONTINUOUS
 62
     7
 10
152.2606123392116
 20
265.33985687766489
 30
0.0
  0
VERTEX
  5
1040
  8
DATA
  6
CONTINUOUS
 62
     7
 10
150.55352733846721
 20
264.71852875003168
 30
0.0
  0
VERTEX
  5
1041
  8
DATA
  6
CONTINUOUS
 62
     7
 10
149.88048832845661
 20
264.79598601876882
 30
0.0
  0
SEQEND
  5
1042
  8
DATA
  6
CONTINUOUS
 62
     7
  0
POLYLINE
  5
7FB
  8
DATA
  6
CONTINUOUS
 62
     7
 66
     1
 10
0.0
 20
0.0
 30
0.0
 70
   128
  0
VERTEX
  5
1043
  8
DATA
  6
CONTINUOUS
 62
     7
 10
157.43168477170579
 20
268.83146916799342
 30
0.0
  0
VERTEX
  5
1044
  8
DATA
  6
CONTINUOUS
 62
     7
 10
157.81801689938379
 20
268.65228045686672
 30
0.0
  0
VERTEX
  5
1045
  8
DATA
  6
CONTINUOUS
 62
     7
 10
157.45700991865809
 20
267.87603779175839
 30
0.0
  0
VERTEX
  5
1046
  8
DATA
  6
CONTINUOUS
 62
     7
 10
156.24188176467791
 20
266.78892044312892
 30
0.0
  0
VERTEX
  5
1047
  8
DATA
  6
CONTINUOUS
 62
     7
 10
154.4584968409595
 20
265.49497454489449
 30
0.0
  0
VERTEX
  5
1048
  8
DATA
  6
CONTINUOUS
 62
     7
 10
152.57148702273261
 20
264.4857357044109
 30
0.0
  0
VERTEX
  5
1049
  8
DATA
  6
CONTINUOUS
 62
     7
 10
151.0454841852322
 20
264.25273952903581
 30
0.0
  0
VERTEX
  5
104A
  8
DATA
  6
CONTINUOUS
 62
     7
 10
150.3724451752224
 20
264.33019679777323
 30
0.0
  0
VERTEX
  5
104B
  8
DATA
  6
CONTINUOUS
 62
     7
 10
149.98411322296371
 20
264.51127896101741
 30
0.0
  0
SEQEND
  5
104C
  8
DATA
  6
CONTINUOUS
 62
     7
  0
POLYLINE
  5
806
  8
DATA
  6
CONTINUOUS
 62
     7
 66
     1
 10
0.0
 20
0.0
 30
0.0
  0
VERTEX
  5
104D
  8
DATA
  6
CONTINUOUS
 62
     7
 10
158.12889158290491
 20
267.79815928361251
 30
0.0
  0
VERTEX
  5
104E
  8
DATA
  6
CONTINUOUS
 62
     7
 10
157.9489667654239
 20
267.41024857076258
 30
0.0
  0
VERTEX
  5
104F
  8
DATA
  6
CONTINUOUS
 62
     7
 10
156.83746350595069
 20
266.03842416438192
 30
0.0
  0
VERTEX
  5
1050
  8
DATA
  6
CONTINUOUS
 62
     7
 10
153.06144404491749
 20
264.02183993553291
 30
0.0
  0
VERTEX
  5
1051
  8
DATA
  6
CONTINUOUS
 62
     7
 10
151.35551638993601
 20
263.40093304730811
 30
0.0
  0
VERTEX
  5
1052
  8
DATA
  6
CONTINUOUS
 62
     7
 10
150.68247737992641
 20
263.47839031604548
 30
0.0
  0
SEQEND
  5
1053
  8
DATA
  6
CONTINUOUS
 62
     7
  0
POLYLINE
  5
80F
  8
DATA
  6
CONTINUOUS
 62
     7
 66
     1
 10
0.0
 20
0.0
 30
0.0
 70
   128
  0
VERTEX
  5
1054
  8
DATA
  6
CONTINUOUS
 62
     7
 10
157.9489667654239
 20
267.41024857076258
 30
0.0
  0
VERTEX
  5
1055
  8
DATA
  6
CONTINUOUS
 62
     7
 10
158.62084842966991
 20
267.33237006261658
 30
0.0
  0
VERTEX
  5
1056
  8
DATA
  6
CONTINUOUS
 62
     7
 10
158.25984144894491
 20
266.55612739750859
 30
0.0
  0
VERTEX
  5
1057
  8
DATA
  6
CONTINUOUS
 62
     7
 10
155.26048589242851
 20
264.17737884217081
 30
0.0
  0
VERTEX
  5
1058
  8
DATA
  6
CONTINUOUS
 62
     7
 10
153.3723187284385
 20
263.16771876227881
 30
0.0
  0
VERTEX
  5
1059
  8
DATA
  6
CONTINUOUS
 62
     7
 10
151.846315890938
 20
262.93472258690377
 30
0.0
  0
VERTEX
  5
105A
  8
DATA
  6
CONTINUOUS
 62
     7
 10
151.174434226692
 20
263.01260109504977
 30
0.0
  0
VERTEX
  5
105B
  8
DATA
  6
CONTINUOUS
 62
     7
 10
150.7861022744334
 20
263.19368325829407
 30
0.0
  0
SEQEND
  5
105C
  8
DATA
  6
CONTINUOUS
 62
     7
  0
POLYLINE
  5
819
  8
DATA
  6
CONTINUOUS
 62
     7
 66
     1
 10
0.0
 20
0.0
 30
0.0
  0
VERTEX
  5
105D
  8
DATA
  6
CONTINUOUS
 62
     7
 10
158.93088063437381
 20
266.48056358088888
 30
0.0
  0
VERTEX
  5
105E
  8
DATA
  6
CONTINUOUS
 62
     7
 10
158.74979847112979
 20
266.09223162863049
 30
0.0
  0
VERTEX
  5
105F
  8
DATA
  6
CONTINUOUS
 62
     7
 10
157.53582766291339
 20
265.00553551940999
 30
0.0
  0
VERTEX
  5
1060
  8
DATA
  6
CONTINUOUS
 62
     7
 10
155.75128539343041
 20
263.71116838176653
 30
0.0
  0
VERTEX
  5
1061
  8
DATA
  6
CONTINUOUS
 62
     7
 10
153.86427557520429
 20
262.70192954128322
 30
0.0
  0
VERTEX
  5
1062
  8
DATA
  6
CONTINUOUS
 62
     7
 10
152.15719057445909
 20
262.08060141364967
 30
0.0
  0
VERTEX
  5
1063
  8
DATA
  6
CONTINUOUS
 62
     7
 10
151.48530891021309
 20
262.15847992179579
 30
0.0
  0
SEQEND
  5
1064
  8
DATA
  6
CONTINUOUS
 62
     7
  0
POLYLINE
  5
823
  8
DATA
  6
CONTINUOUS
 62
     7
 66
     1
 10
0.0
 20
0.0
 30
0.0
  0
VERTEX
  5
1065
  8
DATA
  6
CONTINUOUS
 62
     7
 10
151.69255869922711
 20
261.58906580629298
 30
0.0
  0
VERTEX
  5
1066
  8
DATA
  6
CONTINUOUS
 62
     7
 10
151.87364086247109
 20
261.97739775855132
 30
0.0
  0
VERTEX
  5
1067
  8
DATA
  6
CONTINUOUS
 62
     7
 10
151.9335343139424
 20
262.10652564530159
 30
0.0
  0
SEQEND
  5
1068
  8
DATA
  6
CONTINUOUS
 62
     7
  0
POLYLINE
  5
829
  8
DATA
  6
CONTINUOUS
 62
     7
 66
     1
 10
0.0
 20
0.0
 30
0.0
  0
VERTEX
  5
1069
  8
DATA
  6
CONTINUOUS
 62
     7
 10
158.74979847112979
 20
266.09223162863049
 30
0.0
  0
VERTEX
  5
106A
  8
DATA
  6
CONTINUOUS
 62
     7
 10
159.42283748113951
 20
266.01477435989318
 30
0.0
  0
VERTEX
  5
106B
  8
DATA
  6
CONTINUOUS
 62
     7
 10
159.06067315465091
 20
265.2381104553765
 30
0.0
  0
VERTEX
  5
106C
  8
DATA
  6
CONTINUOUS
 62
     7
 10
157.5619952886826
 20
264.04778945164873
 30
0.0
  0
VERTEX
  5
106D
  8
DATA
  6
CONTINUOUS
 62
     7
 10
155.7786103649635
 20
262.75384355341407
 30
0.0
  0
VERTEX
  5
106E
  8
DATA
  6
CONTINUOUS
 62
     7
 10
152.36444036347299
 20
261.51118729814698
 30
0.0
  0
VERTEX
  5
106F
  8
DATA
  6
CONTINUOUS
 62
     7
 10
151.69255869922711
 20
261.58906580629298
 30
0.0
  0
SEQEND
  5
1070
  8
DATA
  6
CONTINUOUS
 62
     7
  0
POLYLINE
  5
833
  8
DATA
  6
CONTINUOUS
 62
     7
 66
     1
 10
0.0
 20
0.0
 30
0.0
  0
VERTEX
  5
1071
  8
DATA
  6
CONTINUOUS
 62
     7
 10
159.63008727015361
 20
265.44536024439049
 30
0.0
  0
VERTEX
  5
1072
  8
DATA
  6
CONTINUOUS
 62
     7
 10
159.55263000141591
 20
264.77232123438068
 30
0.0
  0
VERTEX
  5
1073
  8
DATA
  6
CONTINUOUS
 62
     7
 10
158.33750184743641
 20
263.6852038857516
 30
0.0
  0
VERTEX
  5
1074
  8
DATA
  6
CONTINUOUS
 62
     7
 10
156.5532744449001
 20
262.39357267904319
 30
0.0
  0
VERTEX
  5
1075
  8
DATA
  6
CONTINUOUS
 62
     7
 10
154.3815575689222
 20
261.28070894405278
 30
0.0
  0
VERTEX
  5
1076
  8
DATA
  6
CONTINUOUS
 62
     7
 10
152.9591796259287
 20
260.76300571092639
 30
0.0
  0
VERTEX
  5
1077
  8
DATA
  6
CONTINUOUS
 62
     7
 10
152.57081310201539
 20
260.9437831096522
 30
0.0
  0
SEQEND
  5
1078
  8
DATA
  6
CONTINUOUS
 62
     7
  0
LINE
  5
83D
  8
DATA
  6
CONTINUOUS
 62
     7
 10
152.494547750696
 20
260.27147010356953
 30
0.0
 11
152.57084767366999
 21
260.94408787417058
 31
0.0
  0
POLYLINE
  5
83E
  8
DATA
  6
CONTINUOUS
 62
     7
 66
     1
 10
0.0
 20
0.0
 30
0.0
  0
VERTEX
  5
1079
  8
DATA
  6
CONTINUOUS
 62
     7
 10
159.55263000141591
 20
264.77232123438068
 30
0.0
  0
VERTEX
  5
107A
  8
DATA
  6
CONTINUOUS
 62
     7
 10
160.22566901142559
 20
264.69486396564332
 30
0.0
  0
VERTEX
  5
107B
  8
DATA
  6
CONTINUOUS
 62
     7
 10
159.57795514836869
 20
263.81688985814611
 30
0.0
  0
VERTEX
  5
107C
  8
DATA
  6
CONTINUOUS
 62
     7
 10
158.36398434015231
 20
262.73019374892539
 30
0.0
  0
VERTEX
  5
107D
  8
DATA
  6
CONTINUOUS
 62
     7
 10
156.57944207066939
 20
261.43582661128198
 30
0.0
  0
VERTEX
  5
107E
  8
DATA
  6
CONTINUOUS
 62
     7
 10
153.1664294149428
 20
260.1935915954237
 30
0.0
  0
VERTEX
  5
107F
  8
DATA
  6
CONTINUOUS
 62
     7
 10
152.494547750696
 20
260.27147010356953
 30
0.0
  0
SEQEND
  5
1080
  8
DATA
  6
CONTINUOUS
 62
     7
  0
POLYLINE
  5
848
  8
DATA
  6
CONTINUOUS
 62
     7
 66
     1
 10
0.0
 20
0.0
 30
0.0
  0
VERTEX
  5
1081
  8
DATA
  6
CONTINUOUS
 62
     7
 10
161.13128295740219
 20
263.09256120516869
 30
0.0
  0
VERTEX
  5
1082
  8
DATA
  6
CONTINUOUS
 62
     7
 10
160.7691186309136
 20
262.31589730065173
 30
0.0
  0
VERTEX
  5
1083
  8
DATA
  6
CONTINUOUS
 62
     7
 10
159.5531479981162
 20
261.23109464354889
 30
0.0
  0
VERTEX
  5
1084
  8
DATA
  6
CONTINUOUS
 62
     7
 10
155.77797101590099
 20
259.21219572317352
 30
0.0
  0
VERTEX
  5
1085
  8
DATA
  6
CONTINUOUS
 62
     7
 10
154.3567504186704
 20
258.69491372945561
 30
0.0
  0
VERTEX
  5
1086
  8
DATA
  6
CONTINUOUS
 62
     7
 10
153.399004350909
 20
258.66874610368592
 30
0.0
  0
SEQEND
  5
1087
  8
DATA
  6
CONTINUOUS
 62
     7
  0
POLYLINE
  5
851
  8
DATA
  6
CONTINUOUS
 62
     7
 66
     1
 10
0.0
 20
0.0
 30
0.0
  0
VERTEX
  5
1088
  8
DATA
  6
CONTINUOUS
 62
     7
 10
162.03573955761519
 20
261.48983720528503
 30
0.0
  0
VERTEX
  5
1089
  8
DATA
  6
CONTINUOUS
 62
     7
 10
161.6747325768896
 20
260.71359454017647
 30
0.0
  0
VERTEX
  5
108A
  8
DATA
  6
CONTINUOUS
 62
     7
 10
160.4596044229101
 20
259.62647719154751
 30
0.0
  0
VERTEX
  5
108B
  8
DATA
  6
CONTINUOUS
 62
     7
 10
158.6742196746109
 20
258.33442474543062
 30
0.0
  0
VERTEX
  5
108C
  8
DATA
  6
CONTINUOUS
 62
     7
 10
156.78720985638401
 20
257.32518590494698
 30
0.0
  0
VERTEX
  5
108D
  8
DATA
  6
CONTINUOUS
 62
     7
 10
155.36598925915339
 20
256.80790391122912
 30
0.0
  0
VERTEX
  5
108E
  8
DATA
  6
CONTINUOUS
 62
     7
 10
154.69295024914371
 20
256.88536117996648
 30
0.0
  0
SEQEND
  5
108F
  8
DATA
  6
CONTINUOUS
 62
     7
  0
POLYLINE
  5
85B
  8
DATA
  6
CONTINUOUS
 62
     7
 66
     1
 10
0.0
 20
0.0
 30
0.0
  0
VERTEX
  5
1090
  8
DATA
  6
CONTINUOUS
 62
     7
 10
162.4502391356433
 20
260.35100897427941
 30
0.0
  0
VERTEX
  5
1091
  8
DATA
  6
CONTINUOUS
 62
     7
 10
162.37309673385229
 20
259.6807058952046
 30
0.0
  0
VERTEX
  5
1092
  8
DATA
  6
CONTINUOUS
 62
     7
 10
161.1579685798728
 20
258.5935885465754
 30
0.0
  0
VERTEX
  5
1093
  8
DATA
  6
CONTINUOUS
 62
     7
 10
157.38279159765671
 20
256.5746896262001
 30
0.0
  0
VERTEX
  5
1094
  8
DATA
  6
CONTINUOUS
 62
     7
 10
155.67686394267449
 20
255.95378273797499
 30
0.0
  0
VERTEX
  5
1095
  8
DATA
  6
CONTINUOUS
 62
     7
 10
155.0038249326648
 20
256.03124000671238
 30
0.0
  0
SEQEND
  5
1096
  8
DATA
  6
CONTINUOUS
 62
     7
  0
LINE
  5
864
  8
DATA
  6
CONTINUOUS
 62
     7
 10
154.6103755604525
 20
273.92539919869557
 30
0.0
 11
154.29950087693149
 21
274.7795203719495
 31
0.0
  0
LINE
  5
865
  8
DATA
  6
CONTINUOUS
 62
     7
 10
146.888189958
 20
270.36330592411463
 30
0.0
 11
147.16396135747391
 21
269.6056302311286
 31
0.0
  0
LINE
  5
866
  8
DATA
  6
CONTINUOUS
 62
     7
 10
156.8099354046638
 20
270.53971151450179
 30
0.0
 11
155.90432145868709
 21
272.14201427497642
 31
0.0
  0
LINE
  5
867
  8
DATA
  6
CONTINUOUS
 62
     7
 10
148.17320019795761
 20
267.71862041290251
 30
0.0
 11
149.07965662275069
 21
266.11400296090108
 31
0.0
  0
POLYLINE
  5
868
  8
DATA
  6
CONTINUOUS
 62
     7
 66
     1
 10
0.0
 20
0.0
 30
0.0
  0
VERTEX
  5
1097
  8
DATA
  6
CONTINUOUS
 62
     7
 10
157.61160958918691
 20
269.21937988084312
 30
0.0
  0
VERTEX
  5
1098
  8
DATA
  6
CONTINUOUS
 62
     7
 10
157.22443498269189
 20
269.40088328349611
 30
0.0
  0
VERTEX
  5
1099
  8
DATA
  6
CONTINUOUS
 62
     7
 10
157.11341852684549
 20
269.45265110703832
 30
0.0
  0
SEQEND
  5
109A
  8
DATA
  6
CONTINUOUS
 62
     7
  0
POLYLINE
  5
86E
  8
DATA
  6
CONTINUOUS
 62
     7
 66
     1
 10
0.0
 20
0.0
 30
0.0
  0
VERTEX
  5
109B
  8
DATA
  6
CONTINUOUS
 62
     7
 10
149.72501585961319
 20
265.22314311626309
 30
0.0
  0
VERTEX
  5
109C
  8
DATA
  6
CONTINUOUS
 62
     7
 10
149.83267274836311
 20
264.92735824537402
 30
0.0
  0
VERTEX
  5
109D
  8
DATA
  6
CONTINUOUS
 62
     7
 10
149.98411322296371
 20
264.51127896101741
 30
0.0
  0
SEQEND
  5
109E
  8
DATA
  6
CONTINUOUS
 62
     7
  0
LINE
  5
874
  8
DATA
  6
CONTINUOUS
 62
     7
 10
158.12889158290491
 20
267.79815928361251
 30
0.0
 11
157.81801689938379
 21
268.65228045686672
 31
0.0
  0
POLYLINE
  5
875
  8
DATA
  6
CONTINUOUS
 62
     7
 66
     1
 10
0.0
 20
0.0
 30
0.0
 70
   128
  0
VERTEX
  5
109F
  8
DATA
  6
CONTINUOUS
 62
     7
 10
150.3724451752224
 20
264.33019679777323
 30
0.0
  0
VERTEX
  5
10A0
  8
DATA
  6
CONTINUOUS
 62
     7
 10
150.68247737992641
 20
263.47839031604548
 30
0.0
  0
VERTEX
  5
10A1
  8
DATA
  6
CONTINUOUS
 62
     7
 10
150.7861022744334
 20
263.19368325829407
 30
0.0
  0
SEQEND
  5
10A2
  8
DATA
  6
CONTINUOUS
 62
     7
  0
LINE
  5
87A
  8
DATA
  6
CONTINUOUS
 62
     7
 10
158.93088063437381
 20
266.48056358088888
 30
0.0
 11
158.62084842966991
 21
267.33237006261658
 31
0.0
  0
LINE
  5
87B
  8
DATA
  6
CONTINUOUS
 62
     7
 10
151.174434226692
 20
263.01260109504977
 30
0.0
 11
151.48530891021309
 21
262.15847992179579
 31
0.0
  0
LINE
  5
87C
  8
DATA
  6
CONTINUOUS
 62
     7
 10
159.63008727015361
 20
265.44536024439049
 30
0.0
 11
159.42283748113951
 21
266.01477435989318
 31
0.0
  0
POLYLINE
  5
87D
  8
DATA
  6
CONTINUOUS
 62
     7
 66
     1
 10
0.0
 20
0.0
 30
0.0
 70
   128
  0
VERTEX
  5
10A3
  8
DATA
  6
CONTINUOUS
 62
     7
 10
151.69255869922711
 20
261.58906580629298
 30
0.0
  0
VERTEX
  5
10A4
  8
DATA
  6
CONTINUOUS
 62
     7
 10
152.18367306717499
 20
261.12559127682351
 30
0.0
  0
VERTEX
  5
10A5
  8
DATA
  6
CONTINUOUS
 62
     7
 10
152.57084767366999
 20
260.94408787417058
 30
0.0
  0
SEQEND
  5
10A6
  8
DATA
  6
CONTINUOUS
 62
     7
  0
LINE
  5
882
  8
DATA
  6
CONTINUOUS
 62
     7
 10
161.13128295740219
 20
263.09256120516869
 30
0.0
 11
160.22566901142559
 21
264.69486396564332
 31
0.0
  0
LINE
  5
883
  8
DATA
  6
CONTINUOUS
 62
     7
 10
152.494547750696
 20
260.27147010356953
 30
0.0
 11
153.399004350909
 21
258.66874610368592
 31
0.0
  0
LINE
  5
884
  8
DATA
  6
CONTINUOUS
 62
     7
 10
162.4502391356433
 20
260.35100897427941
 30
0.0
 11
162.03573955761519
 21
261.48983720528503
 31
0.0
  0
POLYLINE
  5
885
  8
DATA
  6
CONTINUOUS
 62
     7
 66
     1
 10
0.0
 20
0.0
 30
0.0
 70
   128
  0
VERTEX
  5
10A7
  8
DATA
  6
CONTINUOUS
 62
     7
 10
154.69295024914371
 20
256.88536117996648
 30
0.0
  0
VERTEX
  5
10A8
  8
DATA
  6
CONTINUOUS
 62
     7
 10
155.0038249326648
 20
256.03124000671238
 30
0.0
  0
VERTEX
  5
10A9
  8
DATA
  6
CONTINUOUS
 62
     7
 10
155.10744982717179
 20
255.74653294896089
 30
0.0
  0
SEQEND
  5
10AA
  8
DATA
  6
CONTINUOUS
 62
     7
  0
POLYLINE
  5
88A
  8
DATA
  6
CONTINUOUS
 62
     7
 66
     1
 10
0.0
 20
0.0
 30
0.0
  0
VERTEX
  5
10AB
  8
DATA
  6
CONTINUOUS
 62
     7
 10
162.4502391356433
 20
260.35100897427941
 30
0.0
  0
VERTEX
  5
10AC
  8
DATA
  6
CONTINUOUS
 62
     7
 10
162.37309673385229
 20
259.6807058952046
 30
0.0
  0
VERTEX
  5
10AD
  8
DATA
  6
CONTINUOUS
 62
     7
 10
161.1579685798728
 20
258.5935885465754
 30
0.0
  0
VERTEX
  5
10AE
  8
DATA
  6
CONTINUOUS
 62
     7
 10
157.38279159765671
 20
256.5746896262001
 30
0.0
  0
VERTEX
  5
10AF
  8
DATA
  6
CONTINUOUS
 62
     7
 10
155.67686394267449
 20
255.95378273797499
 30
0.0
  0
VERTEX
  5
10B0
  8
DATA
  6
CONTINUOUS
 62
     7
 10
155.0038249326648
 20
256.03124000671238
 30
0.0
  0
SEQEND
  5
10B1
  8
DATA
  6
CONTINUOUS
 62
     7
  0
LINE
  5
893
  8
DATA
  6
CONTINUOUS
 62
     7
 10
159.58067609940389
 20
256.7298072934293
 30
0.0
 11
164.39313802009099
 21
248.819182454627
 31
0.0
  0
POLYLINE
  5
894
  8
DATA
  6
CONTINUOUS
 62
     7
 66
     1
 10
0.0
 20
0.0
 30
0.0
  0
VERTEX
  5
10B2
  8
DATA
  6
CONTINUOUS
 62
     7
 10
164.6778450778427
 20
248.9228073491341
 30
0.0
  0
VERTEX
  5
10B3
  8
DATA
  6
CONTINUOUS
 62
     7
 10
165.99680125608359
 20
246.18125511824499
 30
0.0
  0
VERTEX
  5
10B4
  8
DATA
  6
CONTINUOUS
 62
     7
 10
166.9024152020597
 20
244.57895235776999
 30
0.0
  0
VERTEX
  5
10B5
  8
DATA
  6
CONTINUOUS
 62
     7
 10
167.4979969433324
 20
243.828456079023
 30
0.0
  0
SEQEND
  5
10B6
  8
DATA
  6
CONTINUOUS
 62
     7
  0
LINE
  5
89B
  8
DATA
  6
CONTINUOUS
 62
     7
 10
164.6778450778427
 20
248.9228073491341
 30
0.0
 11
159.76175826264779
 21
257.11813924568759
 31
0.0
  0
POLYLINE
  5
89C
  8
DATA
  6
CONTINUOUS
 62
     7
 66
     1
 10
0.0
 20
0.0
 30
0.0
 70
   128
  0
VERTEX
  5
10B7
  8
DATA
  6
CONTINUOUS
 62
     7
 10
159.76175826264779
 20
257.11813924568759
 30
0.0
  0
VERTEX
  5
10B8
  8
DATA
  6
CONTINUOUS
 62
     7
 10
157.87474844442241
 20
256.10890040520439
 30
0.0
  0
VERTEX
  5
10B9
  8
DATA
  6
CONTINUOUS
 62
     7
 10
156.16766344367639
 20
255.48757227757071
 30
0.0
  0
VERTEX
  5
10BA
  8
DATA
  6
CONTINUOUS
 62
     7
 10
155.4957817794305
 20
255.56545078571679
 30
0.0
  0
VERTEX
  5
10BB
  8
DATA
  6
CONTINUOUS
 62
     7
 10
155.10744982717179
 20
255.74653294896089
 30
0.0
  0
SEQEND
  5
10BC
  8
DATA
  6
CONTINUOUS
 62
     7
  0
POLYLINE
  5
8A3
  8
DATA
  6
CONTINUOUS
 62
     7
 66
     1
 10
0.0
 20
0.0
 30
0.0
 70
   128
  0
VERTEX
  5
10BD
  8
DATA
  6
CONTINUOUS
 62
     7
 10
159.58067609940389
 20
256.7298072934293
 30
0.0
  0
VERTEX
  5
10BE
  8
DATA
  6
CONTINUOUS
 62
     7
 10
157.9783733389294
 20
255.82419334745319
 30
0.0
  0
VERTEX
  5
10BF
  8
DATA
  6
CONTINUOUS
 62
     7
 10
156.5559953959353
 20
255.30649011432649
 30
0.0
  0
VERTEX
  5
10C0
  8
DATA
  6
CONTINUOUS
 62
     7
 10
155.8841137316885
 20
255.38436862247229
 30
0.0
  0
VERTEX
  5
10C1
  8
DATA
  6
CONTINUOUS
 62
     7
 10
155.4957817794305
 20
255.56545078571679
 30
0.0
  0
SEQEND
  5
10C2
  8
DATA
  6
CONTINUOUS
 62
     7
  0
POLYLINE
  5
8AA
  8
DATA
  6
CONTINUOUS
 62
     7
 66
     1
 10
0.0
 20
0.0
 30
0.0
  0
VERTEX
  5
10C3
  8
DATA
  6
CONTINUOUS
 62
     7
 10
169.0732796024495
 20
257.50000000000011
 30
0.0
  0
VERTEX
  5
10C4
  8
DATA
  6
CONTINUOUS
 62
     7
 10
167.4159402513416
 20
257.32726750692018
 30
0.0
  0
VERTEX
  5
10C5
  8
DATA
  6
CONTINUOUS
 62
     7
 10
164.85589142310491
 20
256.39548593517401
 30
0.0
  0
VERTEX
  5
10C6
  8
DATA
  6
CONTINUOUS
 62
     7
 10
164.75544666409931
 20
256.35892703270792
 30
0.0
  0
SEQEND
  5
10C7
  8
DATA
  6
CONTINUOUS
 62
     7
  0
LINE
  5
8B1
  8
DATA
  6
CONTINUOUS
 62
     7
 10
167.4979969433324
 20
243.828456079023
 30
0.0
 11
170.88484197328981
 21
246.02843716264249
 31
0.0
  0
LINE
  5
8B2
  8
DATA
  6
CONTINUOUS
 62
     7
 10
155.4957817794305
 20
255.56545078571679
 30
0.0
 11
155.8841137316885
 21
255.38436862247229
 31
0.0
  0
POLYLINE
  5
8B3
  8
DATA
  6
CONTINUOUS
 62
     7
 66
     1
 10
0.0
 20
0.0
 30
0.0
  0
VERTEX
  5
10C8
  8
DATA
  6
CONTINUOUS
 62
     7
 10
164.75544666409931
 20
256.35892703270792
 30
0.0
  0
VERTEX
  5
10C9
  8
DATA
  6
CONTINUOUS
 62
     7
 10
162.4502391356433
 20
260.35100897427941
 30
0.0
  0
VERTEX
  5
10CA
  8
DATA
  6
CONTINUOUS
 62
     7
 10
162.34661424113631
 20
260.6357160320307
 30
0.0
  0
SEQEND
  5
10CB
  8
DATA
  6
CONTINUOUS
 62
     7
  0
POLYLINE
  5
8B9
  8
DATA
  6
CONTINUOUS
 62
     7
 66
     1
 10
0.0
 20
0.0
 30
0.0
  0
VERTEX
  5
10CC
  8
DATA
  6
CONTINUOUS
 62
     7
 10
156.55599539593521
 20
255.30649011432649
 30
0.0
  0
VERTEX
  5
10CD
  8
DATA
  6
CONTINUOUS
 62
     7
 10
157.69366628117771
 20
255.720568452946
 30
0.0
  0
VERTEX
  5
10CE
  8
DATA
  6
CONTINUOUS
 62
     7
 10
157.9783733389294
 20
255.82419334745319
 30
0.0
  0
SEQEND
  5
10CF
  8
DATA
  6
CONTINUOUS
 62
     7
  0
POLYLINE
  5
8BF
  8
DATA
  6
CONTINUOUS
 62
     7
 66
     1
 10
0.0
 20
0.0
 30
0.0
  0
VERTEX
  5
10D0
  8
DATA
  6
CONTINUOUS
 62
     7
 10
164.39313802009099
 20
248.819182454627
 30
0.0
  0
VERTEX
  5
10D1
  8
DATA
  6
CONTINUOUS
 62
     7
 10
165.60962664958871
 20
246.36275852089801
 30
0.0
  0
VERTEX
  5
10D2
  8
DATA
  6
CONTINUOUS
 62
     7
 10
166.5140832498017
 20
244.7600345210146
 30
0.0
  0
VERTEX
  5
10D3
  8
DATA
  6
CONTINUOUS
 62
     7
 10
167.21328988558071
 20
243.72483118451581
 30
0.0
  0
SEQEND
  5
10D4
  8
DATA
  6
CONTINUOUS
 62
     7
  0
POLYLINE
  5
8C6
  8
DATA
  6
CONTINUOUS
 62
     7
 66
     1
 10
0.0
 20
0.0
 30
0.0
  0
VERTEX
  5
10D5
  8
DATA
  6
CONTINUOUS
 62
     7
 10
160.02237929660279
 20
247.55077981299891
 30
0.0
  0
VERTEX
  5
10D6
  8
DATA
  6
CONTINUOUS
 62
     7
 10
159.11792269638991
 20
249.15350381288229
 30
0.0
  0
VERTEX
  5
10D7
  8
DATA
  6
CONTINUOUS
 62
     7
 10
158.31593364492031
 20
250.47109951560569
 30
0.0
  0
SEQEND
  5
10D8
  8
DATA
  6
CONTINUOUS
 62
     7
  0
LINE
  5
8CC
  8
DATA
  6
CONTINUOUS
 62
     7
 10
160.02237929660279
 20
247.55077981299891
 30
0.0
 11
160.12600419110981
 21
247.26607275524759
 31
0.0
  0
LINE
  5
8CD
  8
DATA
  6
CONTINUOUS
 62
     7
 10
160.02237929660291
 20
247.5507798129988
 30
0.0
 11
160.12600419110981
 21
247.26607275524759
 31
0.0
  0
LINE
  5
8CE
  8
DATA
  6
CONTINUOUS
 62
     7
 10
160.12600419110981
 20
247.26607275524759
 30
0.0
 11
161.13524303159281
 21
245.37906293702119
 31
0.0
  0
LINE
  5
8CF
  8
DATA
  6
CONTINUOUS
 62
     7
 10
155.41815751883539
 20
255.6016475728909
 30
0.0
 11
158.31593364492031
 21
250.47109951560569
 31
0.0
  0
POLYLINE
  5
8D0
  8
DATA
  6
CONTINUOUS
 62
     7
 66
     1
 10
0.0
 20
0.0
 30
0.0
  0
VERTEX
  5
10D9
  8
DATA
  6
CONTINUOUS
 62
     7
 10
164.54698896939499
 20
242.44075541088009
 30
0.0
  0
VERTEX
  5
10DA
  8
DATA
  6
CONTINUOUS
 62
     7
 10
167.21328988558071
 20
243.72483118451581
 30
0.0
  0
VERTEX
  5
10DB
  8
DATA
  6
CONTINUOUS
 62
     7
 10
167.4979969433324
 20
243.828456079023
 30
0.0
  0
SEQEND
  5
10DC
  8
DATA
  6
CONTINUOUS
 62
     7
  0
LINE
  5
8D6
  8
DATA
  6
CONTINUOUS
 62
     7
 10
152.4391766811749
 20
269.27130887287331
 30
0.0
 11
151.53356273519901
 21
270.87361163334822
 31
0.0
  0
POLYLINE
  5
8D7
  8
DATA
  6
CONTINUOUS
 62
     7
 66
     1
 10
0.0
 20
0.0
 30
0.0
  0
VERTEX
  5
10DD
  8
DATA
  6
CONTINUOUS
 62
     7
 10
151.53356273519901
 20
270.87361163334822
 30
0.0
  0
VERTEX
  5
10DE
  8
DATA
  6
CONTINUOUS
 62
     7
 10
153.3181050046812
 20
272.16797877099128
 30
0.0
  0
VERTEX
  5
10DF
  8
DATA
  6
CONTINUOUS
 62
     7
 10
154.53407563747851
 20
273.25278142809441
 30
0.0
  0
VERTEX
  5
10E0
  8
DATA
  6
CONTINUOUS
 62
     7
 10
154.6103755604525
 20
273.92539919869557
 30
0.0
  0
SEQEND
  5
10E1
  8
DATA
  6
CONTINUOUS
 62
     7
  0
POLYLINE
  5
8DE
  8
DATA
  6
CONTINUOUS
 62
     7
 66
     1
 10
0.0
 20
0.0
 30
0.0
  0
VERTEX
  5
10E2
  8
DATA
  6
CONTINUOUS
 62
     7
 10
152.4391766811749
 20
269.27130887287331
 30
0.0
  0
VERTEX
  5
10E3
  8
DATA
  6
CONTINUOUS
 62
     7
 10
154.327028978219
 20
270.27823302183049
 30
0.0
  0
VERTEX
  5
10E4
  8
DATA
  6
CONTINUOUS
 62
     7
 10
155.5421571321985
 20
271.36535037045962
 30
0.0
  0
VERTEX
  5
10E5
  8
DATA
  6
CONTINUOUS
 62
     7
 10
155.90432145868709
 20
272.14201427497642
 30
0.0
  0
SEQEND
  5
10E6
  8
DATA
  6
CONTINUOUS
 62
     7
  0
LINE
  5
8E5
  8
DATA
  6
CONTINUOUS
 62
     7
 10
155.90432145868709
 20
272.14201427497642
 30
0.0
 11
154.6103755604525
 21
273.92539919869557
 31
0.0
  0
LINE
  5
8E6
  8
DATA
  6
CONTINUOUS
 62
     7
 10
152.4391766811749
 20
269.27130887287331
 30
0.0
 11
151.53356273519901
 21
270.87361163334822
 31
0.0
  0
POLYLINE
  5
8E7
  8
DATA
  6
CONTINUOUS
 62
     7
 66
     1
 10
0.0
 20
0.0
 30
0.0
  0
VERTEX
  5
10E7
  8
DATA
  6
CONTINUOUS
 62
     7
 10
147.16396135747391
 20
269.6056302311286
 30
0.0
  0
VERTEX
  5
10E8
  8
DATA
  6
CONTINUOUS
 62
     7
 10
147.83700036748371
 20
269.52817296239118
 30
0.0
  0
VERTEX
  5
10E9
  8
DATA
  6
CONTINUOUS
 62
     7
 10
149.64655291697281
 20
269.86437279286503
 30
0.0
  0
VERTEX
  5
10EA
  8
DATA
  6
CONTINUOUS
 62
     7
 10
151.53356273519901
 20
270.87361163334822
 30
0.0
  0
SEQEND
  5
10EB
  8
DATA
  6
CONTINUOUS
 62
     7
  0
POLYLINE
  5
8EE
  8
DATA
  6
CONTINUOUS
 62
     7
 66
     1
 10
0.0
 20
0.0
 30
0.0
  0
VERTEX
  5
10EC
  8
DATA
  6
CONTINUOUS
 62
     7
 10
148.17320019795761
 20
267.71862041290251
 30
0.0
  0
VERTEX
  5
10ED
  8
DATA
  6
CONTINUOUS
 62
     7
 10
148.8450818622035
 20
267.6407419047564
 30
0.0
  0
VERTEX
  5
10EE
  8
DATA
  6
CONTINUOUS
 62
     7
 10
150.55216686294881
 20
268.26207003239
 30
0.0
  0
VERTEX
  5
10EF
  8
DATA
  6
CONTINUOUS
 62
     7
 10
152.4391766811749
 20
269.27130887287331
 30
0.0
  0
VERTEX
  5
10F0
  8
DATA
  6
CONTINUOUS
 62
     7
 10
152.44730172081881
 20
269.2742661454559
 30
0.0
  0
SEQEND
  5
10F1
  8
DATA
  6
CONTINUOUS
 62
     7
  0
LINE
  5
8F6
  8
DATA
  6
CONTINUOUS
 62
     7
 10
147.16396135747391
 20
269.6056302311286
 30
0.0
 11
148.17320019795761
 21
267.71862041290251
 31
0.0
  0
POLYLINE
  5
8F7
  8
DATA
  6
CONTINUOUS
 62
     7
 66
     1
 10
0.0
 20
0.0
 30
0.0
  0
VERTEX
  5
10F2
  8
DATA
  6
CONTINUOUS
 62
     7
 10
159.5531479981162
 20
261.23109464354889
 30
0.0
  0
VERTEX
  5
10F3
  8
DATA
  6
CONTINUOUS
 62
     7
 10
160.7691186309136
 20
262.31589730065173
 30
0.0
  0
VERTEX
  5
10F4
  8
DATA
  6
CONTINUOUS
 62
     7
 10
161.13128295740219
 20
263.09256120516869
 30
0.0
  0
SEQEND
  5
10F5
  8
DATA
  6
CONTINUOUS
 62
     7
  0
POLYLINE
  5
8FD
  8
DATA
  6
CONTINUOUS
 62
     7
 66
     1
 10
0.0
 20
0.0
 30
0.0
  0
VERTEX
  5
10F6
  8
DATA
  6
CONTINUOUS
 62
     7
 10
158.6742196746109
 20
258.33442474543062
 30
0.0
  0
VERTEX
  5
10F7
  8
DATA
  6
CONTINUOUS
 62
     7
 10
160.4596044229101
 20
259.62647719154751
 30
0.0
  0
VERTEX
  5
10F8
  8
DATA
  6
CONTINUOUS
 62
     7
 10
161.6747325768896
 20
260.71359454017647
 30
0.0
  0
VERTEX
  5
10F9
  8
DATA
  6
CONTINUOUS
 62
     7
 10
162.03573955761519
 20
261.48983720528503
 30
0.0
  0
SEQEND
  5
10FA
  8
DATA
  6
CONTINUOUS
 62
     7
  0
LINE
  5
904
  8
DATA
  6
CONTINUOUS
 62
     7
 10
162.03573955761519
 20
261.48983720528503
 30
0.0
 11
161.13128295740219
 21
263.09256120516869
 31
0.0
  0
POLYLINE
  5
905
  8
DATA
  6
CONTINUOUS
 62
     7
 66
     1
 10
0.0
 20
0.0
 30
0.0
  0
VERTEX
  5
10FB
  8
DATA
  6
CONTINUOUS
 62
     7
 10
153.399004350909
 20
258.66874610368592
 30
0.0
  0
VERTEX
  5
10FC
  8
DATA
  6
CONTINUOUS
 62
     7
 10
154.3567504186704
 20
258.69491372945561
 30
0.0
  0
VERTEX
  5
10FD
  8
DATA
  6
CONTINUOUS
 62
     7
 10
155.77797101590099
 20
259.21219572317352
 30
0.0
  0
SEQEND
  5
10FE
  8
DATA
  6
CONTINUOUS
 62
     7
  0
POLYLINE
  5
90B
  8
DATA
  6
CONTINUOUS
 62
     7
 66
     1
 10
0.0
 20
0.0
 30
0.0
  0
VERTEX
  5
10FF
  8
DATA
  6
CONTINUOUS
 62
     7
 10
154.69295024914371
 20
256.88536117996648
 30
0.0
  0
VERTEX
  5
1100
  8
DATA
  6
CONTINUOUS
 62
     7
 10
155.36598925915339
 20
256.80790391122912
 30
0.0
  0
VERTEX
  5
1101
  8
DATA
  6
CONTINUOUS
 62
     7
 10
156.78720985638401
 20
257.32518590494698
 30
0.0
  0
VERTEX
  5
1102
  8
DATA
  6
CONTINUOUS
 62
     7
 10
158.6742196746109
 20
258.33442474543062
 30
0.0
  0
SEQEND
  5
1103
  8
DATA
  6
CONTINUOUS
 62
     7
  0
LINE
  5
912
  8
DATA
  6
CONTINUOUS
 62
     7
 10
153.399004350909
 20
258.66874610368592
 30
0.0
 11
154.69295024914371
 21
256.88536117996648
 31
0.0
  0
POLYLINE
  5
913
  8
DATA
  6
CONTINUOUS
 62
     7
 66
     1
 10
0.0
 20
0.0
 30
0.0
  0
VERTEX
  5
1104
  8
DATA
  6
CONTINUOUS
 62
     7
 10
124.23403843541961
 20
397.89640054439752
 30
0.0
  0
VERTEX
  5
1105
  8
DATA
  6
CONTINUOUS
 62
     7
 10
123.6280805903675
 20
397.29044269934542
 30
0.0
  0
VERTEX
  5
1106
  8
DATA
  6
CONTINUOUS
 62
     7
 10
121.8126702984835
 20
396.98746377681942
 30
0.0
  0
VERTEX
  5
1107
  8
DATA
  6
CONTINUOUS
 62
     7
 10
119.99602838496349
 20
396.38396917503968
 30
0.0
  0
VERTEX
  5
1108
  8
DATA
  6
CONTINUOUS
 62
     7
 10
118.1793864714442
 20
396.38396917503968
 30
0.0
  0
VERTEX
  5
1109
  8
DATA
  6
CONTINUOUS
 62
     7
 10
117.5746602480282
 20
396.6844848542932
 30
0.0
  0
SEQEND
  5
110A
  8
DATA
  6
CONTINUOUS
 62
     7
  0
POLYLINE
  5
91C
  8
DATA
  6
CONTINUOUS
 62
     7
 66
     1
 10
0.0
 20
0.0
 30
0.0
  0
VERTEX
  5
110B
  8
DATA
  6
CONTINUOUS
 62
     7
 10
122.41739652189951
 20
407.88485201466648
 30
0.0
  0
VERTEX
  5
110C
  8
DATA
  6
CONTINUOUS
 62
     7
 10
121.8126702984835
 20
407.27889416961438
 30
0.0
  0
VERTEX
  5
110D
  8
DATA
  6
CONTINUOUS
 62
     7
 10
120.2990073074899
 20
406.6753995678348
 30
0.0
  0
VERTEX
  5
110E
  8
DATA
  6
CONTINUOUS
 62
     7
 10
118.1793864714442
 20
406.37242064530881
 30
0.0
  0
VERTEX
  5
110F
  8
DATA
  6
CONTINUOUS
 62
     7
 10
116.3639761795602
 20
406.37242064530881
 30
0.0
  0
VERTEX
  5
1110
  8
DATA
  6
CONTINUOUS
 62
     7
 10
115.75801833450819
 20
406.6753995678348
 30
0.0
  0
SEQEND
  5
1111
  8
DATA
  6
CONTINUOUS
 62
     7
  0
LINE
  5
925
  8
DATA
  6
CONTINUOUS
 62
     7
 10
114.24558696515059
 20
419.6887137768191
 30
0.0
 11
114.24558696515059
 21
419.99169269934521
 31
0.0
  0
POLYLINE
  5
926
  8
DATA
  6
CONTINUOUS
 62
     7
 66
     1
 10
0.0
 20
0.0
 30
0.0
 70
   128
  0
VERTEX
  5
1112
  8
DATA
  6
CONTINUOUS
 62
     7
 10
122.41739652189951
 20
407.88485201466648
 30
0.0
  0
VERTEX
  5
1113
  8
DATA
  6
CONTINUOUS
 62
     7
 10
119.0883232390218
 20
420.59765054439748
 30
0.0
  0
VERTEX
  5
1114
  8
DATA
  6
CONTINUOUS
 62
     7
 10
119.0883232390218
 20
420.90062946692342
 30
0.0
  0
SEQEND
  5
1115
  8
DATA
  6
CONTINUOUS
 62
     7
  0
LINE
  5
92B
  8
DATA
  6
CONTINUOUS
 62
     7
 10
114.24558696515059
 20
419.6887137768191
 30
0.0
 11
115.75801833450819
 21
406.6753995678348
 31
0.0
  0
LINE
  5
92C
  8
DATA
  6
CONTINUOUS
 62
     7
 10
124.23403843541961
 20
397.89640054439752
 30
0.0
 11
122.41739652189951
 21
407.88485201466648
 31
0.0
  0
POLYLINE
  5
92D
  8
DATA
  6
CONTINUOUS
 62
     7
 66
     1
 10
0.0
 20
0.0
 30
0.0
 70
   128
  0
VERTEX
  5
1116
  8
DATA
  6
CONTINUOUS
 62
     7
 10
115.75801833450819
 20
406.6753995678348
 30
0.0
  0
VERTEX
  5
1117
  8
DATA
  6
CONTINUOUS
 62
     7
 10
117.5746602480282
 20
396.6844848542932
 30
0.0
  0
VERTEX
  5
1118
  8
DATA
  6
CONTINUOUS
 62
     7
 10
117.5746602480282
 20
396.38396917503968
 30
0.0
  0
SEQEND
  5
1119
  8
DATA
  6
CONTINUOUS
 62
     7
  0
POLYLINE
  5
932
  8
DATA
  6
CONTINUOUS
 62
     7
 66
     1
 10
0.0
 20
0.0
 30
0.0
 70
   128
  0
VERTEX
  5
111A
  8
DATA
  6
CONTINUOUS
 62
     7
 10
119.0883232390218
 20
420.59765054439748
 30
0.0
  0
VERTEX
  5
111B
  8
DATA
  6
CONTINUOUS
 62
     7
 10
119.0883232390218
 20
420.90062946692342
 30
0.0
  0
VERTEX
  5
111C
  8
DATA
  6
CONTINUOUS
 62
     7
 10
118.7853443164955
 20
420.90062946692342
 30
0.0
  0
VERTEX
  5
111D
  8
DATA
  6
CONTINUOUS
 62
     7
 10
118.7853443164955
 20
421.20360838944941
 30
0.0
  0
VERTEX
  5
111E
  8
DATA
  6
CONTINUOUS
 62
     7
 10
117.87763917055381
 20
421.20360838944941
 30
0.0
  0
SEQEND
  5
111F
  8
DATA
  6
CONTINUOUS
 62
     7
  0
POLYLINE
  5
939
  8
DATA
  6
CONTINUOUS
 62
     7
 66
     1
 10
0.0
 20
0.0
 30
0.0
  0
VERTEX
  5
1120
  8
DATA
  6
CONTINUOUS
 62
     7
 10
115.45627103361861
 20
420.90062946692342
 30
0.0
  0
VERTEX
  5
1121
  8
DATA
  6
CONTINUOUS
 62
     7
 10
115.1532921110922
 20
420.59765054439748
 30
0.0
  0
VERTEX
  5
1122
  8
DATA
  6
CONTINUOUS
 62
     7
 10
114.5473342660401
 20
420.59765054439748
 30
0.0
  0
VERTEX
  5
1123
  8
DATA
  6
CONTINUOUS
 62
     7
 10
114.5473342660401
 20
420.29467162187132
 30
0.0
  0
VERTEX
  5
1124
  8
DATA
  6
CONTINUOUS
 62
     7
 10
114.24558696515059
 20
419.99169269934521
 30
0.0
  0
VERTEX
  5
1125
  8
DATA
  6
CONTINUOUS
 62
     7
 10
114.24558696515059
 20
419.6887137768191
 30
0.0
  0
SEQEND
  5
1126
  8
DATA
  6
CONTINUOUS
 62
     7
  0
POLYLINE
  5
942
  8
DATA
  6
CONTINUOUS
 62
     7
 66
     1
 10
0.0
 20
0.0
 30
0.0
  0
VERTEX
  5
1127
  8
DATA
  6
CONTINUOUS
 62
     7
 10
159.3451080426243
 20
428.16473387773078
 30
0.0
  0
VERTEX
  5
1128
  8
DATA
  6
CONTINUOUS
 62
     7
 10
167.21517029848371
 20
431.1920598597186
 30
0.0
  0
VERTEX
  5
1129
  8
DATA
  6
CONTINUOUS
 62
     7
 10
171.45194872730301
 20
432.70449122907632
 30
0.0
  0
VERTEX
  5
112A
  8
DATA
  6
CONTINUOUS
 62
     7
 10
175.6899587777591
 20
433.91640691918047
 30
0.0
  0
VERTEX
  5
112B
  8
DATA
  6
CONTINUOUS
 62
     7
 10
179.32201098316239
 20
434.52236476423241
 30
0.0
  0
VERTEX
  5
112C
  8
DATA
  6
CONTINUOUS
 62
     7
 10
182.65108426603999
 20
435.12585936601192
 30
0.0
  0
VERTEX
  5
112D
  8
DATA
  6
CONTINUOUS
 62
     7
 10
185.3754313255024
 20
435.73181721106403
 30
0.0
  0
VERTEX
  5
112E
  8
DATA
  6
CONTINUOUS
 62
     7
 10
187.0
 20
435.89440626473629
 30
0.0
  0
SEQEND
  5
112F
  8
DATA
  6
CONTINUOUS
 62
     7
  0
POLYLINE
  5
94D
  8
DATA
  6
CONTINUOUS
 62
     7
 66
     1
 10
0.0
 20
0.0
 30
0.0
  0
VERTEX
  5
1130
  8
DATA
  6
CONTINUOUS
 62
     7
 10
182.30000000000001
 20
436.94126965789559
 30
0.0
  0
VERTEX
  5
1131
  8
DATA
  6
CONTINUOUS
 62
     7
 10
179.62498990568881
 20
436.94126965789559
 30
0.0
  0
VERTEX
  5
1132
  8
DATA
  6
CONTINUOUS
 62
     7
 10
178.1113269146943
 20
436.64075397864229
 30
0.0
  0
VERTEX
  5
1133
  8
DATA
  6
CONTINUOUS
 62
     7
 10
175.9929377002847
 20
436.64075397864229
 30
0.0
  0
VERTEX
  5
1134
  8
DATA
  6
CONTINUOUS
 62
     7
 10
174.47927470929099
 20
436.33777505611619
 30
0.0
  0
VERTEX
  5
1135
  8
DATA
  6
CONTINUOUS
 62
     7
 10
173.26859064082299
 20
436.33777505611619
 30
0.0
  0
VERTEX
  5
1136
  8
DATA
  6
CONTINUOUS
 62
     7
 10
172.05790657235499
 20
436.03479613359019
 30
0.0
  0
VERTEX
  5
1137
  8
DATA
  6
CONTINUOUS
 62
     7
 10
170.84722250388779
 20
436.03479613359019
 30
0.0
  0
VERTEX
  5
1138
  8
DATA
  6
CONTINUOUS
 62
     7
 10
169.63653843541971
 20
435.73181721106403
 30
0.0
  0
VERTEX
  5
1139
  8
DATA
  6
CONTINUOUS
 62
     7
 10
168.42585436695171
 20
435.73181721106403
 30
0.0
  0
VERTEX
  5
113A
  8
DATA
  6
CONTINUOUS
 62
     7
 10
166.91219137595809
 20
435.42883828853792
 30
0.0
  0
VERTEX
  5
113B
  8
DATA
  6
CONTINUOUS
 62
     7
 10
165.70150730749009
 20
435.42883828853792
 30
0.0
  0
VERTEX
  5
113C
  8
DATA
  6
CONTINUOUS
 62
     7
 10
156.62076098316271
 20
433.91640691918047
 30
0.0
  0
VERTEX
  5
113D
  8
DATA
  6
CONTINUOUS
 62
     7
 10
154.80535069127859
 20
433.91640691918047
 30
0.0
  0
VERTEX
  5
113E
  8
DATA
  6
CONTINUOUS
 62
     7
 10
153.291687700285
 20
433.61342799665431
 30
0.0
  0
VERTEX
  5
113F
  8
DATA
  6
CONTINUOUS
 62
     7
 10
151.47504578676489
 20
433.61342799665431
 30
0.0
  0
VERTEX
  5
1140
  8
DATA
  6
CONTINUOUS
 62
     7
 10
149.65963549488171
 20
433.31044907412831
 30
0.0
  0
VERTEX
  5
1141
  8
DATA
  6
CONTINUOUS
 62
     7
 10
147.8429935813609
 20
433.31044907412831
 30
0.0
  0
VERTEX
  5
1142
  8
DATA
  6
CONTINUOUS
 62
     7
 10
145.72460436695201
 20
433.00747015160232
 30
0.0
  0
VERTEX
  5
1143
  8
DATA
  6
CONTINUOUS
 62
     7
 10
143.30200460838
 20
433.00747015160232
 30
0.0
  0
VERTEX
  5
1144
  8
DATA
  6
CONTINUOUS
 62
     7
 10
141.18361539396949
 20
432.70449122907632
 30
0.0
  0
VERTEX
  5
1145
  8
DATA
  6
CONTINUOUS
 62
     7
 10
138.76224725703429
 20
432.70449122907632
 30
0.0
  0
VERTEX
  5
1146
  8
DATA
  6
CONTINUOUS
 62
     7
 10
136.34087912009821
 20
432.4015123065501
 30
0.0
  0
VERTEX
  5
1147
  8
DATA
  6
CONTINUOUS
 62
     7
 10
133.91951098316301
 20
432.4015123065501
 30
0.0
  0
VERTEX
  5
1148
  8
DATA
  6
CONTINUOUS
 62
     7
 10
133.01180583722061
 20
432.09853338402411
 30
0.0
  0
VERTEX
  5
1149
  8
DATA
  6
CONTINUOUS
 62
     7
 10
132.10410069127889
 20
432.09853338402411
 30
0.0
  0
VERTEX
  5
114A
  8
DATA
  6
CONTINUOUS
 62
     7
 10
130.89218500117491
 20
431.79801770477059
 30
0.0
  0
VERTEX
  5
114B
  8
DATA
  6
CONTINUOUS
 62
     7
 10
129.98447985523319
 20
431.79801770477059
 30
0.0
  0
VERTEX
  5
114C
  8
DATA
  6
CONTINUOUS
 62
     7
 10
128.77379578676531
 20
431.49503878224471
 30
0.0
  0
VERTEX
  5
114D
  8
DATA
  6
CONTINUOUS
 62
     7
 10
126.9583854948812
 20
430.88908093719249
 30
0.0
  0
VERTEX
  5
114E
  8
DATA
  6
CONTINUOUS
 62
     7
 10
125.74646980477721
 20
430.88908093719249
 30
0.0
  0
VERTEX
  5
114F
  8
DATA
  6
CONTINUOUS
 62
     7
 10
125.1417435813612
 20
430.58610201466649
 30
0.0
  0
VERTEX
  5
1150
  8
DATA
  6
CONTINUOUS
 62
     7
 10
124.23403843541961
 20
430.28312309214039
 30
0.0
  0
VERTEX
  5
1151
  8
DATA
  6
CONTINUOUS
 62
     7
 10
123.3251016678411
 20
429.6771652470884
 30
0.0
  0
VERTEX
  5
1152
  8
DATA
  6
CONTINUOUS
 62
     7
 10
120.9037335309059
 20
428.46771280025678
 30
0.0
  0
VERTEX
  5
1153
  8
DATA
  6
CONTINUOUS
 62
     7
 10
120.6007546083794
 20
427.86175495520467
 30
0.0
  0
VERTEX
  5
1154
  8
DATA
  6
CONTINUOUS
 62
     7
 10
119.99602838496349
 20
427.55877603267862
 30
0.0
  0
VERTEX
  5
1155
  8
DATA
  6
CONTINUOUS
 62
     7
 10
119.3913021615483
 20
426.95528143089899
 30
0.0
  0
VERTEX
  5
1156
  8
DATA
  6
CONTINUOUS
 62
     7
 10
119.0883232390218
 20
426.349323585847
 30
0.0
  0
VERTEX
  5
1157
  8
DATA
  6
CONTINUOUS
 62
     7
 10
118.4823653939699
 20
425.7433657407949
 30
0.0
  0
VERTEX
  5
1158
  8
DATA
  6
CONTINUOUS
 62
     7
 10
118.4823653939699
 20
425.44038681826902
 30
0.0
  0
VERTEX
  5
1159
  8
DATA
  6
CONTINUOUS
 62
     7
 10
118.1793864714442
 20
425.1374078957428
 30
0.0
  0
VERTEX
  5
115A
  8
DATA
  6
CONTINUOUS
 62
     7
 10
118.1793864714442
 20
424.8344289732168
 30
0.0
  0
VERTEX
  5
115B
  8
DATA
  6
CONTINUOUS
 62
     7
 10
117.87763917055381
 20
424.23093437143717
 30
0.0
  0
VERTEX
  5
115C
  8
DATA
  6
CONTINUOUS
 62
     7
 10
117.87763917055381
 20
423.92795544891129
 30
0.0
  0
VERTEX
  5
115D
  8
DATA
  6
CONTINUOUS
 62
     7
 10
117.5746602480282
 20
423.32199760385919
 30
0.0
  0
VERTEX
  5
115E
  8
DATA
  6
CONTINUOUS
 62
     7
 10
117.5746602480282
 20
422.11008191375498
 30
0.0
  0
VERTEX
  5
115F
  8
DATA
  6
CONTINUOUS
 62
     7
 10
117.2716813255018
 20
421.50658731197558
 30
0.0
  0
VERTEX
  5
1160
  8
DATA
  6
CONTINUOUS
 62
     7
 10
117.2716813255018
 20
421.20360838944941
 30
0.0
  0
SEQEND
  5
1161
  8
DATA
  6
CONTINUOUS
 62
     7
  0
LINE
  5
981
  8
DATA
  6
CONTINUOUS
 62
     7
 10
148.04445328625221
 20
265.4147963251217
 30
0.0
 11
148.14723570194209
 21
265.1324039588967
 31
0.0
  0
LINE
  5
982
  8
DATA
  6
CONTINUOUS
 62
     7
 10
143.64408485950409
 20
279.27641142856959
 30
0.0
 11
142.97104584949429
 21
279.35386869730718
 31
0.0
  0
LINE
  5
983
  8
DATA
  6
CONTINUOUS
 62
     7
 10
147.4837153444762
 20
282.44430231054781
 30
0.0
 11
147.5738615122483
 21
282.63865243802951
 31
0.0
  0
LINE
  5
984
  8
DATA
  6
CONTINUOUS
 62
     7
 10
134.72663369547169
 20
330.29761541527148
 30
0.0
 11
135.13019505163021
 21
330.70158731197569
 31
0.0
  0
LINE
  5
985
  8
DATA
  6
CONTINUOUS
 62
     7
 10
133.61653206063659
 20
331.91103975880719
 30
0.0
 11
134.8272161291045
 21
332.81997652638518
 31
0.0
  0
LINE
  5
986
  8
DATA
  6
CONTINUOUS
 62
     7
 10
128.47081686423891
 20
339.47812309214061
 30
0.0
 11
128.77379578676531
 21
339.47812309214061
 31
0.0
  0
LINE
  5
987
  8
DATA
  6
CONTINUOUS
 62
     7
 10
126.9583854948812
 20
347.954143193052
 30
0.0
 11
127.2601327957708
 21
347.65116427052601
 31
0.0
  0
LINE
  5
988
  8
DATA
  6
CONTINUOUS
 62
     7
 10
127.56311171829719
 20
347.954143193052
 30
0.0
 11
128.47081686423891
 21
348.257122115578
 31
0.0
  0
LINE
  5
989
  8
DATA
  6
CONTINUOUS
 62
     7
 10
131.80112176875249
 20
348.86061671735757
 30
0.0
 11
131.80112176875249
 21
350.07253240746172
 31
0.0
  0
LINE
  5
98A
  8
DATA
  6
CONTINUOUS
 62
     7
 10
131.80112176875249
 20
350.6784902525136
 30
0.0
 11
131.80112176875249
 21
350.98146917503959
 31
0.0
  0
LINE
  5
98B
  8
DATA
  6
CONTINUOUS
 62
     7
 10
132.10410069127889
 20
347.04520642547379
 30
0.0
 11
132.10410069127889
 21
347.65116427052601
 31
0.0
  0
LINE
  5
98C
  8
DATA
  6
CONTINUOUS
 62
     7
 10
129.37975363181729
 20
362.4823520146665
 30
0.0
 11
129.0767747092909
 21
363.69426770477082
 31
0.0
  0
LINE
  5
98D
  8
DATA
  6
CONTINUOUS
 62
     7
 10
126.9583854948812
 20
375.19515054439728
 30
0.0
 11
127.1728354945466
 21
375.346
 31
0.0
  0
LINE
  5
98E
  8
DATA
  6
CONTINUOUS
 62
     7
 10
120.2990073074899
 20
386.39551770477073
 30
0.0
 11
119.99602838496349
 21
387.30199122907618
 31
0.0
  0
LINE
  5
98F
  8
DATA
  6
CONTINUOUS
 62
     7
 10
124.8993604433407
 20
388.21092799665428
 30
0.0
 11
125.4447225038876
 21
388.81688584170649
 31
0.0
  0
LINE
  5
990
  8
DATA
  6
CONTINUOUS
 62
     7
 10
117.87763917055381
 20
421.20360838944941
 30
0.0
 11
117.2716813255018
 21
421.20360838944941
 31
0.0
  0
LINE
  5
991
  8
DATA
  6
CONTINUOUS
 62
     7
 10
152.68572985523289
 20
423.92795544891129
 30
0.0
 11
152.38275093270661
 21
423.92795544891129
 31
0.0
  0
LINE
  5
992
  8
DATA
  6
CONTINUOUS
 62
     7
 10
152.68572985523289
 20
423.92795544891129
 30
0.0
 11
151.77802470929061
 21
424.8344289732168
 31
0.0
  0
LINE
  5
993
  8
DATA
  6
CONTINUOUS
 62
     7
 10
153.59343500117461
 20
423.6249765263853
 30
0.0
 11
152.9887087777586
 21
423.6249765263853
 31
0.0
  0
ARC
  5
994
  8
DATA
  6
CONTINUOUS
 62
     7
 10
128.32527160873079
 20
382.3049058934609
 30
0.0
 40
1.4413627348557361
 50
108.57671992801529
 51
161.50096925265731
  0
ARC
  5
995
  8
DATA
  6
CONTINUOUS
 62
     7
 10
127.8315001014054
 20
381.7140874055039
 30
0.0
 40
2.4954486173749881
 50
10.20659644755408
 51
51.652389200383269
  0
LINE
  5
996
  8
DATA
  6
CONTINUOUS
 62
     7
 10
130.89218500117491
 20
373.37974025251373
 30
0.0
 11
130.8666264621919
 21
373.45189796599283
 31
0.0
  0
LINE
  5
997
  8
DATA
  6
CONTINUOUS
 62
     7
 10
248.03171882821431
 20
348.86061671735757
 30
0.0
 11
248.03171882821431
 21
349.46657456240962
 31
0.0
  0
LINE
  5
998
  8
DATA
  6
CONTINUOUS
 62
     7
 10
251.96551833450789
 20
352.49390054439732
 30
0.0
 11
252.26849725703431
 21
353.09985838944948
 31
0.0
  0
LINE
  5
999
  8
DATA
  6
CONTINUOUS
 62
     7
 10
253.78216024802791
 20
383.67117064530891
 30
0.0
 11
255.59880216154801
 21
383.67117064530891
 31
0.0
  0
LINE
  5
99A
  8
DATA
  6
CONTINUOUS
 62
     7
 10
253.17743402461201
 20
382.1562760326787
 30
0.0
 11
253.17743402461201
 21
382.88999999999999
 31
0.0
  0
ARC
  5
99B
  8
DATA
  6
CONTINUOUS
 62
     7
 10
254.09577614899391
 20
382.80373860001481
 30
0.0
 40
0.9223845654290599
 50
109.8772141539101
 51
174.63385747550271
  0
ARC
  5
99C
  8
DATA
  6
CONTINUOUS
 62
     7
 10
255.37698472065131
 20
382.54194778967673
 30
0.0
 40
1.1508028652936051
 50
11.03563512617492
 51
78.886675693152299
  0
LINE
  5
99D
  8
DATA
  6
CONTINUOUS
 62
     7
 10
256.50650730748958
 20
379.73490789574299
 30
0.0
 11
256.50650730748958
 21
382.76223387773081
 31
0.0
  0
LINE
  5
99E
  8
DATA
  6
CONTINUOUS
 62
     7
 10
255.9005494624376
 20
373.07676132998768
 30
0.0
 11
255.9005494624376
 21
373.68271917503972
 31
0.0
  0
LINE
  5
99F
  8
DATA
  6
CONTINUOUS
 62
     7
 10
255.59880216154801
 20
370.65539319305191
 30
0.0
 11
254.08513917055441
 21
362.4823520146665
 31
0.0
  0
LINE
  5
9A0
  8
DATA
  6
CONTINUOUS
 62
     7
 10
249.24117127504621
 20
355.52122652638542
 30
0.0
 11
249.54649837007781
 21
357.95499999999998
 31
0.0
  0
LINE
  5
9A1
  8
DATA
  6
CONTINUOUS
 62
     7
 10
225.0274899056889
 20
426.04634466332101
 30
0.0
 11
224.42153206063611
 21
426.652302508373
 31
0.0
  0
LINE
  5
9A2
  8
DATA
  6
CONTINUOUS
 62
     7
 10
129.0767747092909
 20
393.05366427052581
 30
0.0
 11
130.5904377002845
 21
398.50235838944951
 31
0.0
  0
LINE
  5
9A3
  8
DATA
  6
CONTINUOUS
 62
     7
 10
130.5904377002845
 20
392.75068534799982
 30
0.0
 11
132.10410069127889
 21
398.1993794669234
 31
0.0
  0
LINE
  5
9A4
  8
DATA
  6
CONTINUOUS
 62
     7
 10
157.83144505163071
 20
425.44038681826902
 30
0.0
 11
158.90000000000001
 21
426.33999999999992
 31
0.0
  0
LINE
  5
9A5
  8
DATA
  6
CONTINUOUS
 62
     7
 10
158.90000000000001
 20
426.33999999999992
 30
0.0
 11
159.31999999999999
 21
426.92000000000002
 31
0.0
  0
LINE
  5
9A6
  8
DATA
  6
CONTINUOUS
 62
     7
 10
159.31999999999999
 20
426.92000000000002
 30
0.0
 11
159.3451080426243
 21
428.16473387773073
 31
0.0
  0
LINE
  5
9A7
  8
DATA
  6
CONTINUOUS
 62
     7
 10
159.04208503125059
 20
428.46744862561371
 30
0.0
 11
159.3451080426243
 21
428.16473387773073
 31
0.0
  0
LINE
  5
9A8
  8
DATA
  6
CONTINUOUS
 62
     7
 10
157.2267188282147
 20
429.3741863245624
 30
0.0
 11
157.83144505163071
 21
429.3741863245624
 31
0.0
  0
ARC
  5
9A9
  8
DATA
  6
CONTINUOUS
 62
     7
 10
206.5917884724193
 20
323.13452939132009
 30
0.0
 40
116.3703790373329
 50
102.0488432145663
 51
114.4446101226375
  0
LINE
  5
9AA
  8
DATA
  6
CONTINUOUS
 62
     7
 10
187.0
 20
434.62040928180443
 30
0.0
 11
187.0
 21
435.89440626473629
 31
0.0
  0
LINE
  5
9AB
  8
DATA
  6
CONTINUOUS
 62
     7
 10
187.0
 20
437.25
 30
0.0
 11
187.0
 21
450.12040928180431
 31
0.0
  0
LINE
  5
9AC
  8
DATA
  6
CONTINUOUS
 62
     7
 10
197.0
 20
450.12040928180431
 30
0.0
 11
197.0
 21
436.81333198221768
 31
0.0
  0
LINE
  5
9AD
  8
DATA
  6
CONTINUOUS
 62
     7
 10
197.0
 20
435.31964117773379
 30
0.0
 11
197.0
 21
434.62040928180443
 31
0.0
  0
ARC
  5
9AE
  8
DATA
  6
CONTINUOUS
 62
     7
 10
190.4236795890927
 20
349.19920753330462
 30
0.0
 40
88.117328806210637
 50
92.226710474842932
 51
95.289702172457055
  0
ARC
  5
9AF
  8
DATA
  6
CONTINUOUS
 62
     7
 10
189.32499999999999
 20
389.06627062938219
 30
0.0
 40
46.885817813952343
 50
79.227736766162295
 51
92.84238069496314
  0
ARC
  5
9B0
  8
DATA
  6
CONTINUOUS
 62
     7
 10
189.875
 20
388.36769442770583
 30
0.0
 40
48.96677876952031
 50
80.344099352568435
 51
93.365958695072976
  0
LINE
  5
9B1
  8
DATA
  6
CONTINUOUS
 62
     7
 10
187.0
 20
434.62040928180443
 30
0.0
 11
197.0
 21
434.62040928180443
 31
0.0
  0
LINE
  5
9B2
  8
DATA
  6
CONTINUOUS
 62
     7
 10
188.5
 20
451.62040928180443
 30
0.0
 11
190.18000000000001
 21
451.62040928180443
 31
0.0
  0
LINE
  5
9B3
  8
DATA
  6
CONTINUOUS
 62
     7
 10
193.81999999999999
 20
451.62040928180443
 30
0.0
 11
195.5
 21
451.62040928180443
 31
0.0
  0
ARC
  5
9B4
  8
DATA
  6
CONTINUOUS
 62
     7
 10
188.5
 20
450.12040928180431
 30
0.0
 40
1.5
 50
90.0
 51
180.0
  0
ARC
  5
9B5
  8
DATA
  6
CONTINUOUS
 62
     7
 10
195.5
 20
450.12040928180431
 30
0.0
 40
1.5
 50
0.0
 51
90.0
  0
ARC
  5
9B6
  8
DATA
  6
CONTINUOUS
 62
     7
 10
192.23359550561801
 20
446.02040928180429
 30
0.0
 40
2.0135955056179879
 50
108.9408135452458
 51
263.33816523909979
  0
ARC
  5
9B7
  8
DATA
  6
CONTINUOUS
 62
     7
 10
191.76640449438199
 20
446.02040928180429
 30
0.0
 40
2.0135955056179711
 50
276.66183476090038
 51
71.059186454751028
  0
LINE
  5
9B8
  8
DATA
  6
CONTINUOUS
 62
     7
 10
191.58000000000001
 20
447.92497741534021
 30
0.0
 11
190.18000000000001
 21
451.62040928180443
 31
0.0
  0
LINE
  5
9B9
  8
DATA
  6
CONTINUOUS
 62
     7
 10
192.41999999999999
 20
447.92497741534021
 30
0.0
 11
193.81999999999999
 21
451.62040928180443
 31
0.0
  0
LINE
  5
9BA
  8
DATA
  6
CONTINUOUS
 62
     7
 10
187.0
 20
443.2000000000001
 30
0.0
 11
197.0
 21
443.2000000000001
 31
0.0
  0
LINE
  5
9BB
  8
DATA
  6
CONTINUOUS
 62
     7
 10
408.34134632551371
 20
232.18196227128021
 30
0.0
 11
408.34134632551371
 21
322.00919032008107
 31
0.0
  0
LINE
  5
9BC
  8
DATA
  6
CONTINUOUS
 62
     7
 10
408.34134632551371
 20
324.00919032008107
 30
0.0
 11
408.34134632551371
 21
386.98190032963379
 31
0.0
  0
LINE
  5
9BD
  8
DATA
  6
CONTINUOUS
 62
     7
 10
410.34134632551383
 20
232.18196227128021
 30
0.0
 11
410.34134632551383
 21
319.47691833541262
 31
0.0
  0
LINE
  5
9BE
  8
DATA
  6
CONTINUOUS
 62
     7
 10
410.34134632551383
 20
321.47691833541262
 30
0.0
 11
410.34134632551383
 21
388.98190032963379
 31
0.0
  0
ARC
  5
9BF
  8
DATA
  6
CONTINUOUS
 62
     7
 10
358.34134632551383
 20
386.98190032963379
 30
0.0
 40
50.0
 50
0.0
 51
90.0
  0
ARC
  5
9C0
  8
DATA
  6
CONTINUOUS
 62
     7
 10
360.34134632551383
 20
388.98190032963379
 30
0.0
 40
50.0
 50
0.0
 51
90.0
  0
ARC
  5
9C1
  8
DATA
  6
CONTINUOUS
 62
     7
 10
405.625
 20
320.78110642669651
 30
0.0
 40
4.2188935733035473
 50
27.269827443099341
 51
152.73017255690061
  0
ARC
  5
9C2
  8
DATA
  6
CONTINUOUS
 62
     7
 10
413.12499999999989
 20
324.64714470010352
 30
0.0
 40
4.2188935733035473
 50
207.26982744309939
 51
332.73017255690058
  0
ARC
  5
9C3
  8
DATA
  6
CONTINUOUS
 62
     7
 10
405.625
 20
318.78110642669651
 30
0.0
 40
4.2188935733035473
 50
27.269827443099341
 51
152.73017255690061
  0
ARC
  5
9C4
  8
DATA
  6
CONTINUOUS
 62
     7
 10
413.12499999999989
 20
322.64714470010352
 30
0.0
 40
4.2188935733035473
 50
207.26982744309939
 51
332.73017255690058
  0
POLYLINE
  5
9C5
  8
DATA
  6
CONTINUOUS
 62
     7
 66
     1
 10
0.0
 20
0.0
 30
0.0
  0
VERTEX
  5
1162
  8
DATA
  6
CONTINUOUS
 62
     7
 10
136.45305261784711
 20
296.79166994669907
 30
0.0
  0
VERTEX
  5
1163
  8
DATA
  6
CONTINUOUS
 62
     7
 10
137.6649683079512
 20
296.79166994669907
 30
0.0
  0
VERTEX
  5
1164
  8
DATA
  6
CONTINUOUS
 62
     7
 10
138.57267345389349
 20
297.09464886922513
 30
0.0
  0
VERTEX
  5
1165
  8
DATA
  6
CONTINUOUS
 62
     7
 10
139.1773996773087
 20
297.39762779175112
 30
0.0
  0
VERTEX
  5
1166
  8
DATA
  6
CONTINUOUS
 62
     7
 10
140.08633644488719
 20
297.70060671427711
 30
0.0
  0
VERTEX
  5
1167
  8
DATA
  6
CONTINUOUS
 62
     7
 10
140.69106266830241
 20
298.00358563680311
 30
0.0
  0
VERTEX
  5
1168
  8
DATA
  6
CONTINUOUS
 62
     7
 10
140.99404159082891
 20
298.30410131605657
 30
0.0
  0
VERTEX
  5
1169
  8
DATA
  6
CONTINUOUS
 62
     7
 10
140.99404159082891
 20
298.60708023858263
 30
0.0
  0
SEQEND
  5
116A
  8
DATA
  6
CONTINUOUS
 62
     7
  0
POLYLINE
  5
9D0
  8
DATA
  6
CONTINUOUS
 62
     7
 66
     1
 10
0.0
 20
0.0
 30
0.0
  0
VERTEX
  5
116B
  8
DATA
  6
CONTINUOUS
 62
     7
 10
138.57082476724071
 20
296.48807395915742
 30
0.0
  0
VERTEX
  5
116C
  8
DATA
  6
CONTINUOUS
 62
     7
 10
139.48037859983521
 20
296.79166994669907
 30
0.0
  0
VERTEX
  5
116D
  8
DATA
  6
CONTINUOUS
 62
     7
 10
140.69106266830241
 20
297.39762779175112
 30
0.0
  0
VERTEX
  5
116E
  8
DATA
  6
CONTINUOUS
 62
     7
 10
141.29702051335531
 20
298.00358563680311
 30
0.0
  0
VERTEX
  5
116F
  8
DATA
  6
CONTINUOUS
 62
     7
 10
140.99404159082891
 20
298.30533293769292
 30
0.0
  0
SEQEND
  5
1170
  8
DATA
  6
CONTINUOUS
 62
     7
  0
POLYLINE
  5
9D8
  8
DATA
  6
CONTINUOUS
 62
     7
 66
     1
 10
0.0
 20
0.0
 30
0.0
  0
VERTEX
  5
1171
  8
DATA
  6
CONTINUOUS
 62
     7
 10
136.45305261784711
 20
298.30410131605657
 30
0.0
  0
VERTEX
  5
1172
  8
DATA
  6
CONTINUOUS
 62
     7
 10
136.1513053169576
 20
298.30410131605657
 30
0.0
  0
VERTEX
  5
1173
  8
DATA
  6
CONTINUOUS
 62
     7
 10
137.3619893854256
 20
298.30410131605657
 30
0.0
  0
SEQEND
  5
1174
  8
DATA
  6
CONTINUOUS
 62
     7
  0
POLYLINE
  5
9DE
  8
DATA
  6
CONTINUOUS
 62
     7
 66
     1
 10
0.0
 20
0.0
 30
0.0
  0
VERTEX
  5
1175
  8
DATA
  6
CONTINUOUS
 62
     7
 10
138.8756523764192
 20
298.91005916110868
 30
0.0
  0
VERTEX
  5
1176
  8
DATA
  6
CONTINUOUS
 62
     7
 10
139.7833575223608
 20
299.21303808363479
 30
0.0
  0
VERTEX
  5
1177
  8
DATA
  6
CONTINUOUS
 62
     7
 10
140.38931536741279
 20
299.51601700616072
 30
0.0
  0
VERTEX
  5
1178
  8
DATA
  6
CONTINUOUS
 62
     7
 10
140.69106266830241
 20
299.81899592868677
 30
0.0
  0
VERTEX
  5
1179
  8
DATA
  6
CONTINUOUS
 62
     7
 10
140.69106266830241
 20
300.31000000000012
 30
0.0
  0
SEQEND
  5
117A
  8
DATA
  6
CONTINUOUS
 62
     7
  0
LINE
  5
9E6
  8
DATA
  6
CONTINUOUS
 62
     7
 10
140.99404159082891
 20
298.60708023858263
 30
0.0
 11
140.69106266830241
 21
300.12197485121283
 31
0.0
  0
POLYLINE
  5
9E7
  8
DATA
  6
CONTINUOUS
 62
     7
 66
     1
 10
0.0
 20
0.0
 30
0.0
 70
   128
  0
VERTEX
  5
117B
  8
DATA
  6
CONTINUOUS
 62
     7
 10
136.1513053169576
 20
298.30410131605657
 30
0.0
  0
VERTEX
  5
117C
  8
DATA
  6
CONTINUOUS
 62
     7
 10
136.45305261784711
 20
296.79166994669907
 30
0.0
  0
VERTEX
  5
117D
  8
DATA
  6
CONTINUOUS
 62
     7
 10
136.7560315403727
 20
296.48869102417302
 30
0.0
  0
SEQEND
  5
117E
  8
DATA
  6
CONTINUOUS
 62
     7
  0
LINE
  5
9EC
  8
DATA
  6
CONTINUOUS
 62
     7
 10
140.99404159082891
 20
298.30410131605657
 30
0.0
 11
140.99404159082891
 21
298.60708023858263
 31
0.0
  0
LINE
  5
9ED
  8
DATA
  6
CONTINUOUS
 62
     7
 10
136.3526189065654
 20
299.10000000000002
 30
0.0
 11
136.45305261784711
 21
298.30410131605657
 31
0.0
  0
LINE
  5
9EE
  8
DATA
  6
CONTINUOUS
 62
     7
 10
137.85269342443971
 20
299.2207212235225
 30
0.0
 11
136.81999999999999
 21
299.10000000000002
 31
0.0
  0
LINE
  5
9EF
  8
DATA
  6
CONTINUOUS
 62
     7
 10
136.81999999999999
 20
299.10000000000002
 30
0.0
 11
136.1592384861099
 21
299.10000000000002
 31
0.0
  0
LINE
  5
9F0
  8
DATA
  6
CONTINUOUS
 62
     7
 10
136.03790019757179
 20
299.22133828853811
 30
0.0
 11
136.15923848611001
 21
299.10000000000002
 31
0.0
  0
LINE
  5
9F1
  8
DATA
  6
CONTINUOUS
 62
     7
 10
140.57888917055431
 20
300.73623290116819
 30
0.0
 11
140.69106266830241
 21
300.31
 31
0.0
  0
LINE
  5
9F2
  8
DATA
  6
CONTINUOUS
 62
     7
 10
137.3619893854256
 20
298.30410131605657
 30
0.0
 11
138.5
 21
298.66000000000008
 31
0.0
  0
LINE
  5
9F3
  8
DATA
  6
CONTINUOUS
 62
     7
 10
138.5
 20
298.66000000000008
 30
0.0
 11
138.8756523764192
 21
298.91005916110868
 31
0.0
  0
LINE
  5
9F4
  8
DATA
  6
CONTINUOUS
 62
     7
 10
143.71949798300059
 20
283.48946488989583
 30
0.0
 11
144.86000000000001
 21
284.62996690689511
 31
0.0
  0
LINE
  5
9F5
  8
DATA
  6
CONTINUOUS
 62
     7
 10
144.86000000000001
 20
284.62996690689511
 30
0.0
 11
145.76294848724231
 21
285.84599388991438
 31
0.0
  0
LINE
  5
9F6
  8
DATA
  6
CONTINUOUS
 62
     7
 10
138.57082476724071
 20
296.48807395915742
 30
0.0
 11
137.56999999999999
 21
296.39999999999998
 31
0.0
  0
LINE
  5
9F7
  8
DATA
  6
CONTINUOUS
 62
     7
 10
137.56999999999999
 20
296.39999999999998
 30
0.0
 11
136.9537134733977
 21
296.34576593610598
 31
0.0
  0
LINE
  5
9F8
  8
DATA
  6
CONTINUOUS
 62
     7
 10
136.7560315403727
 20
296.48869102417302
 30
0.0
 11
136.9537134733977
 21
296.34576593610609
 31
0.0
  0
POLYLINE
  5
9F9
  8
DATA
  6
CONTINUOUS
 62
     7
 66
     1
 10
0.0
 20
0.0
 30
0.0
  0
VERTEX
  5
117F
  8
DATA
  6
CONTINUOUS
 62
     7
 10
139.3001515017659
 20
293.77448563453589
 30
0.0
  0
VERTEX
  5
1180
  8
DATA
  6
CONTINUOUS
 62
     7
 10
140.20970533436051
 20
294.07808162207738
 30
0.0
  0
VERTEX
  5
1181
  8
DATA
  6
CONTINUOUS
 62
     7
 10
141.42038940282771
 20
294.68403946712942
 30
0.0
  0
VERTEX
  5
1182
  8
DATA
  6
CONTINUOUS
 62
     7
 10
142.02634724788049
 20
295.28999731218158
 30
0.0
  0
SEQEND
  5
1183
  8
DATA
  6
CONTINUOUS
 62
     7
  0
POLYLINE
  5
A00
  8
DATA
  6
CONTINUOUS
 62
     7
 66
     1
 10
0.0
 20
0.0
 30
0.0
  0
VERTEX
  5
1184
  8
DATA
  6
CONTINUOUS
 62
     7
 10
137.18237935237241
 20
295.59051299143499
 30
0.0
  0
VERTEX
  5
1185
  8
DATA
  6
CONTINUOUS
 62
     7
 10
136.88063205148279
 20
295.59051299143499
 30
0.0
  0
VERTEX
  5
1186
  8
DATA
  6
CONTINUOUS
 62
     7
 10
138.09131611995079
 20
295.59051299143499
 30
0.0
  0
SEQEND
  5
1187
  8
DATA
  6
CONTINUOUS
 62
     7
  0
POLYLINE
  5
A06
  8
DATA
  6
CONTINUOUS
 62
     7
 66
     1
 10
0.0
 20
0.0
 30
0.0
  0
VERTEX
  5
1188
  8
DATA
  6
CONTINUOUS
 62
     7
 10
140.5126842568861
 20
296.4994497590132
 30
0.0
  0
VERTEX
  5
1189
  8
DATA
  6
CONTINUOUS
 62
     7
 10
141.11864210193809
 20
296.8024286815392
 30
0.0
  0
VERTEX
  5
118A
  8
DATA
  6
CONTINUOUS
 62
     7
 10
141.42038940282771
 20
297.10540760406519
 30
0.0
  0
VERTEX
  5
118B
  8
DATA
  6
CONTINUOUS
 62
     7
 10
141.42038940282771
 20
297.59641167537848
 30
0.0
  0
SEQEND
  5
118C
  8
DATA
  6
CONTINUOUS
 62
     7
  0
LINE
  5
A0D
  8
DATA
  6
CONTINUOUS
 62
     7
 10
141.7233683253541
 20
295.89349191396099
 30
0.0
 11
141.42038940282771
 21
297.40838652659119
 31
0.0
  0
POLYLINE
  5
A0E
  8
DATA
  6
CONTINUOUS
 62
     7
 66
     1
 10
0.0
 20
0.0
 30
0.0
 70
   128
  0
VERTEX
  5
118D
  8
DATA
  6
CONTINUOUS
 62
     7
 10
136.88063205148279
 20
295.59051299143499
 30
0.0
  0
VERTEX
  5
118E
  8
DATA
  6
CONTINUOUS
 62
     7
 10
137.18237935237241
 20
294.07808162207738
 30
0.0
  0
VERTEX
  5
118F
  8
DATA
  6
CONTINUOUS
 62
     7
 10
137.485358274898
 20
293.77510269955138
 30
0.0
  0
SEQEND
  5
1190
  8
DATA
  6
CONTINUOUS
 62
     7
  0
LINE
  5
A13
  8
DATA
  6
CONTINUOUS
 62
     7
 10
139.3001515017659
 20
293.77448563453589
 30
0.0
 11
138.29932673452521
 21
293.68641167537839
 31
0.0
  0
LINE
  5
A14
  8
DATA
  6
CONTINUOUS
 62
     7
 10
138.29932673452521
 20
293.68641167537839
 30
0.0
 11
137.683040207923
 21
293.63217761148439
 31
0.0
  0
LINE
  5
A15
  8
DATA
  6
CONTINUOUS
 62
     7
 10
137.485358274898
 20
293.77510269955138
 30
0.0
 11
137.683040207923
 21
293.63217761148439
 31
0.0
  0
LINE
  5
A16
  8
DATA
  6
CONTINUOUS
 62
     7
 10
138.09131611995079
 20
295.59051299143499
 30
0.0
 11
139.6352275677732
 21
296.10584842720772
 31
0.0
  0
LINE
  5
A17
  8
DATA
  6
CONTINUOUS
 62
     7
 10
137.18237935237241
 20
296.36588884867251
 30
0.0
 11
137.25061349666751
 21
295.59051299143499
 31
0.0
  0
LINE
  5
A18
  8
DATA
  6
CONTINUOUS
 62
     7
 10
141.42038940282771
 20
297.59641167537848
 30
0.0
 11
141.29702051335531
 21
298.00358563680311
 31
0.0
  0
LINE
  5
A19
  8
DATA
  6
CONTINUOUS
 62
     7
 10
139.61000000000001
 20
296.09742782792381
 30
0.0
 11
140.5126842568861
 21
296.4994497590132
 31
0.0
  0
LINE
  5
A1A
  8
DATA
  6
CONTINUOUS
 62
     7
 10
141.7233683253541
 20
295.89349191396099
 30
0.0
 11
142.02634724788049
 21
295.28999731218158
 31
0.0
  0
POLYLINE
  5
A1B
  8
DATA
  6
CONTINUOUS
 62
     7
 66
     1
 10
0.0
 20
0.0
 30
0.0
  0
VERTEX
  5
1191
  8
DATA
  6
CONTINUOUS
 62
     7
 10
140.11047754024531
 20
290.99921443851889
 30
0.0
  0
VERTEX
  5
1192
  8
DATA
  6
CONTINUOUS
 62
     7
 10
141.02003137283981
 20
291.30281042606049
 30
0.0
  0
VERTEX
  5
1193
  8
DATA
  6
CONTINUOUS
 62
     7
 10
142.23071544130701
 20
291.90876827111259
 30
0.0
  0
VERTEX
  5
1194
  8
DATA
  6
CONTINUOUS
 62
     7
 10
142.83667328635991
 20
292.5147261161643
 30
0.0
  0
SEQEND
  5
1195
  8
DATA
  6
CONTINUOUS
 62
     7
  0
POLYLINE
  5
A22
  8
DATA
  6
CONTINUOUS
 62
     7
 66
     1
 10
0.0
 20
0.0
 30
0.0
  0
VERTEX
  5
1196
  8
DATA
  6
CONTINUOUS
 62
     7
 10
141.32301029536541
 20
293.72417856299518
 30
0.0
  0
VERTEX
  5
1197
  8
DATA
  6
CONTINUOUS
 62
     7
 10
141.9289681404174
 20
294.027157485521
 30
0.0
  0
VERTEX
  5
1198
  8
DATA
  6
CONTINUOUS
 62
     7
 10
142.23071544130701
 20
294.33013640804688
 30
0.0
  0
VERTEX
  5
1199
  8
DATA
  6
CONTINUOUS
 62
     7
 10
142.23071544130701
 20
294.82114047936022
 30
0.0
  0
SEQEND
  5
119A
  8
DATA
  6
CONTINUOUS
 62
     7
  0
POLYLINE
  5
A29
  8
DATA
  6
CONTINUOUS
 62
     7
 66
     1
 10
0.0
 20
0.0
 30
0.0
 70
   128
  0
VERTEX
  5
119B
  8
DATA
  6
CONTINUOUS
 62
     7
 10
137.69095808996209
 20
292.81524179541759
 30
0.0
  0
VERTEX
  5
119C
  8
DATA
  6
CONTINUOUS
 62
     7
 10
137.99270539085171
 20
291.30281042606049
 30
0.0
  0
VERTEX
  5
119D
  8
DATA
  6
CONTINUOUS
 62
     7
 10
138.29568431337731
 20
290.99983150353449
 30
0.0
  0
SEQEND
  5
119E
  8
DATA
  6
CONTINUOUS
 62
     7
  0
LINE
  5
A2E
  8
DATA
  6
CONTINUOUS
 62
     7
 10
140.11047754024531
 20
290.99921443851889
 30
0.0
 11
139.1096527730046
 21
290.91114047936151
 31
0.0
  0
LINE
  5
A2F
  8
DATA
  6
CONTINUOUS
 62
     7
 10
138.29568431337731
 20
290.99983150353449
 30
0.0
 11
138.4933662464023
 21
290.85690641546751
 31
0.0
  0
LINE
  5
A30
  8
DATA
  6
CONTINUOUS
 62
     7
 10
138.90164215843021
 20
292.81524179541759
 30
0.0
 11
140.4455536062525
 21
293.33057723118992
 31
0.0
  0
LINE
  5
A31
  8
DATA
  6
CONTINUOUS
 62
     7
 10
137.9866964694225
 20
293.65889978108748
 30
0.0
 11
138.06093953514679
 21
292.81524179541759
 31
0.0
  0
LINE
  5
A32
  8
DATA
  6
CONTINUOUS
 62
     7
 10
142.53369436383349
 20
293.11822071794347
 30
0.0
 11
142.83667328635991
 21
292.5147261161643
 31
0.0
  0
LINE
  5
A33
  8
DATA
  6
CONTINUOUS
 62
     7
 10
137.69095808996209
 20
292.81524179541759
 30
0.0
 11
138.90164215843021
 21
292.81524179541759
 31
0.0
  0
LINE
  5
A34
  8
DATA
  6
CONTINUOUS
 62
     7
 10
140.4455536062525
 20
293.33057723118992
 30
0.0
 11
141.32301029536541
 21
293.72417856299518
 31
0.0
  0
LINE
  5
A35
  8
DATA
  6
CONTINUOUS
 62
     7
 10
139.1096527730046
 20
290.91114047936151
 30
0.0
 11
138.4933662464023
 21
290.85690641546751
 31
0.0
  0
LINE
  5
A36
  8
DATA
  6
CONTINUOUS
 62
     7
 10
142.23071544130701
 20
294.82114047936022
 30
0.0
 11
141.89410292818309
 21
295.15775299248429
 31
0.0
  0
LINE
  5
A37
  8
DATA
  6
CONTINUOUS
 62
     7
 10
142.53369436383349
 20
293.11822071794347
 30
0.0
 11
142.23071544130701
 21
294.33013640804688
 31
0.0
  0
POLYLINE
  5
A38
  8
DATA
  6
CONTINUOUS
 62
     7
 66
     1
 10
0.0
 20
0.0
 30
0.0
  0
VERTEX
  5
119F
  8
DATA
  6
CONTINUOUS
 62
     7
 10
140.84563960846961
 20
288.30272225228839
 30
0.0
  0
VERTEX
  5
11A0
  8
DATA
  6
CONTINUOUS
 62
     7
 10
141.75519344106411
 20
288.60631823982999
 30
0.0
  0
VERTEX
  5
11A1
  8
DATA
  6
CONTINUOUS
 62
     7
 10
142.9658775095314
 20
289.21227608488198
 30
0.0
  0
VERTEX
  5
11A2
  8
DATA
  6
CONTINUOUS
 62
     7
 10
143.5718353545841
 20
289.8182339299338
 30
0.0
  0
SEQEND
  5
11A3
  8
DATA
  6
CONTINUOUS
 62
     7
  0
POLYLINE
  5
A3F
  8
DATA
  6
CONTINUOUS
 62
     7
 66
     1
 10
0.0
 20
0.0
 30
0.0
  0
VERTEX
  5
11A4
  8
DATA
  6
CONTINUOUS
 62
     7
 10
142.0581723635897
 20
291.0276863767649
 30
0.0
  0
VERTEX
  5
11A5
  8
DATA
  6
CONTINUOUS
 62
     7
 10
142.66413020864181
 20
291.33066529929062
 30
0.0
  0
VERTEX
  5
11A6
  8
DATA
  6
CONTINUOUS
 62
     7
 10
142.9658775095314
 20
291.6336442218165
 30
0.0
  0
VERTEX
  5
11A7
  8
DATA
  6
CONTINUOUS
 62
     7
 10
142.9658775095314
 20
292.12464829312978
 30
0.0
  0
SEQEND
  5
11A8
  8
DATA
  6
CONTINUOUS
 62
     7
  0
POLYLINE
  5
A46
  8
DATA
  6
CONTINUOUS
 62
     7
 66
     1
 10
0.0
 20
0.0
 30
0.0
 70
   128
  0
VERTEX
  5
11A9
  8
DATA
  6
CONTINUOUS
 62
     7
 10
138.42612015818651
 20
290.1187496091872
 30
0.0
  0
VERTEX
  5
11AA
  8
DATA
  6
CONTINUOUS
 62
     7
 10
138.72786745907609
 20
288.60631823982999
 30
0.0
  0
VERTEX
  5
11AB
  8
DATA
  6
CONTINUOUS
 62
     7
 10
139.03084638160161
 20
288.30333931730399
 30
0.0
  0
SEQEND
  5
11AC
  8
DATA
  6
CONTINUOUS
 62
     7
  0
LINE
  5
A4B
  8
DATA
  6
CONTINUOUS
 62
     7
 10
140.84563960846961
 20
288.30272225228839
 30
0.0
 11
139.8448148412289
 21
288.21464829313112
 31
0.0
  0
LINE
  5
A4C
  8
DATA
  6
CONTINUOUS
 62
     7
 10
139.03084638160161
 20
288.30333931730399
 30
0.0
 11
139.22852831462669
 21
288.16041422923712
 31
0.0
  0
LINE
  5
A4D
  8
DATA
  6
CONTINUOUS
 62
     7
 10
139.6368042266545
 20
290.1187496091872
 30
0.0
 11
141.1807156744768
 21
290.63408504495948
 31
0.0
  0
LINE
  5
A4E
  8
DATA
  6
CONTINUOUS
 62
     7
 10
138.72931553830469
 20
290.87767027841181
 30
0.0
 11
138.79610160337111
 21
290.1187496091872
 31
0.0
  0
LINE
  5
A4F
  8
DATA
  6
CONTINUOUS
 62
     7
 10
138.42612015818651
 20
290.1187496091872
 30
0.0
 11
139.6368042266545
 21
290.1187496091872
 31
0.0
  0
LINE
  5
A50
  8
DATA
  6
CONTINUOUS
 62
     7
 10
139.8448148412289
 20
288.21464829313112
 30
0.0
 11
139.22852831462669
 21
288.16041422923712
 31
0.0
  0
LINE
  5
A51
  8
DATA
  6
CONTINUOUS
 62
     7
 10
142.9658775095314
 20
292.12464829312978
 30
0.0
 11
142.7062364864282
 21
292.38428931623281
 31
0.0
  0
LINE
  5
A52
  8
DATA
  6
CONTINUOUS
 62
     7
 10
143.26885643205779
 20
290.42172853171309
 30
0.0
 11
142.9658775095314
 21
291.6336442218165
 31
0.0
  0
LINE
  5
A53
  8
DATA
  6
CONTINUOUS
 62
     7
 10
141.1807156744768
 20
290.63408504495948
 30
0.0
 11
142.0581723635897
 21
291.0276863767649
 31
0.0
  0
LINE
  5
A54
  8
DATA
  6
CONTINUOUS
 62
     7
 10
143.5718353545841
 20
289.8182339299338
 30
0.0
 11
143.26885643205779
 21
290.42172853171309
 31
0.0
  0
POLYLINE
  5
A55
  8
DATA
  6
CONTINUOUS
 62
     7
 66
     1
 10
0.0
 20
0.0
 30
0.0
  0
VERTEX
  5
11AD
  8
DATA
  6
CONTINUOUS
 62
     7
 10
141.540970857422
 20
285.61510291740927
 30
0.0
  0
VERTEX
  5
11AE
  8
DATA
  6
CONTINUOUS
 62
     7
 10
142.45052469001661
 20
285.91869890495087
 30
0.0
  0
VERTEX
  5
11AF
  8
DATA
  6
CONTINUOUS
 62
     7
 10
143.66120875848381
 20
286.52465675000298
 30
0.0
  0
VERTEX
  5
11B0
  8
DATA
  6
CONTINUOUS
 62
     7
 10
144.26716660353659
 20
287.13061459505479
 30
0.0
  0
SEQEND
  5
11B1
  8
DATA
  6
CONTINUOUS
 62
     7
  0
POLYLINE
  5
A5C
  8
DATA
  6
CONTINUOUS
 62
     7
 66
     1
 10
0.0
 20
0.0
 30
0.0
  0
VERTEX
  5
11B2
  8
DATA
  6
CONTINUOUS
 62
     7
 10
142.7535036125422
 20
288.34006704188567
 30
0.0
  0
VERTEX
  5
11B3
  8
DATA
  6
CONTINUOUS
 62
     7
 10
143.35946145759419
 20
288.6430459644115
 30
0.0
  0
VERTEX
  5
11B4
  8
DATA
  6
CONTINUOUS
 62
     7
 10
143.66120875848381
 20
288.94602488693738
 30
0.0
  0
VERTEX
  5
11B5
  8
DATA
  6
CONTINUOUS
 62
     7
 10
143.66120875848381
 20
289.43702895825061
 30
0.0
  0
SEQEND
  5
11B6
  8
DATA
  6
CONTINUOUS
 62
     7
  0
POLYLINE
  5
A63
  8
DATA
  6
CONTINUOUS
 62
     7
 66
     1
 10
0.0
 20
0.0
 30
0.0
 70
   128
  0
VERTEX
  5
11B7
  8
DATA
  6
CONTINUOUS
 62
     7
 10
139.12145140713889
 20
287.43113027430798
 30
0.0
  0
VERTEX
  5
11B8
  8
DATA
  6
CONTINUOUS
 62
     7
 10
139.42319870802851
 20
285.91869890495087
 30
0.0
  0
VERTEX
  5
11B9
  8
DATA
  6
CONTINUOUS
 62
     7
 10
139.7261776305541
 20
285.61571998242488
 30
0.0
  0
SEQEND
  5
11BA
  8
DATA
  6
CONTINUOUS
 62
     7
  0
LINE
  5
A68
  8
DATA
  6
CONTINUOUS
 62
     7
 10
141.540970857422
 20
285.61510291740927
 30
0.0
 11
140.54014609018131
 21
285.527028958252
 31
0.0
  0
LINE
  5
A69
  8
DATA
  6
CONTINUOUS
 62
     7
 10
139.7261776305541
 20
285.61571998242488
 30
0.0
 11
139.9238595635791
 21
285.472794894358
 31
0.0
  0
LINE
  5
A6A
  8
DATA
  6
CONTINUOUS
 62
     7
 10
140.33213547560689
 20
287.43113027430798
 30
0.0
 11
141.8760469234293
 21
287.94646571008042
 31
0.0
  0
LINE
  5
A6B
  8
DATA
  6
CONTINUOUS
 62
     7
 10
139.12145140713889
 20
287.43113027430798
 30
0.0
 11
140.33213547560689
 21
287.43113027430798
 31
0.0
  0
LINE
  5
A6C
  8
DATA
  6
CONTINUOUS
 62
     7
 10
140.54014609018131
 20
285.527028958252
 30
0.0
 11
139.9238595635791
 21
285.472794894358
 31
0.0
  0
LINE
  5
A6D
  8
DATA
  6
CONTINUOUS
 62
     7
 10
143.66120875848381
 20
289.43702895825061
 30
0.0
 11
143.4259195706922
 21
289.67231814604207
 31
0.0
  0
LINE
  5
A6E
  8
DATA
  6
CONTINUOUS
 62
     7
 10
143.9641876810102
 20
287.73410919683391
 30
0.0
 11
143.66120875848381
 21
288.94602488693738
 31
0.0
  0
LINE
  5
A6F
  8
DATA
  6
CONTINUOUS
 62
     7
 10
141.8760469234293
 20
287.94646571008042
 30
0.0
 11
142.7535036125422
 21
288.34006704188567
 31
0.0
  0
LINE
  5
A70
  8
DATA
  6
CONTINUOUS
 62
     7
 10
144.26716660353659
 20
287.13061459505479
 30
0.0
 11
143.9641876810102
 21
287.73410919683391
 31
0.0
  0
LINE
  5
A71
  8
DATA
  6
CONTINUOUS
 62
     7
 10
139.34
 20
287.43113027430798
 30
0.0
 11
139.22852831462669
 21
288.16041422923712
 31
0.0
  0
LINE
  5
A72
  8
DATA
  6
CONTINUOUS
 62
     7
 10
143.2219083595387
 20
283.48599075840201
 30
0.0
 11
144.09482155330781
 21
283.8647884602031
 31
0.0
  0
POLYLINE
  5
A73
  8
DATA
  6
CONTINUOUS
 62
     7
 66
     1
 10
0.0
 20
0.0
 30
0.0
 70
   128
  0
VERTEX
  5
11BB
  8
DATA
  6
CONTINUOUS
 62
     7
 10
140.6533186980962
 20
285.08423256815217
 30
0.0
  0
VERTEX
  5
11BC
  8
DATA
  6
CONTINUOUS
 62
     7
 10
141.08573483875711
 20
283.60385546690208
 30
0.0
  0
VERTEX
  5
11BD
  8
DATA
  6
CONTINUOUS
 62
     7
 10
141.41396718804029
 20
283.32843582367769
 30
0.0
  0
SEQEND
  5
11BE
  8
DATA
  6
CONTINUOUS
 62
     7
  0
LINE
  5
A78
  8
DATA
  6
CONTINUOUS
 62
     7
 10
143.2219083595387
 20
283.48599075840201
 30
0.0
 11
142.23256818402169
 21
283.31102432130029
 31
0.0
  0
LINE
  5
A79
  8
DATA
  6
CONTINUOUS
 62
     7
 10
141.41396718804029
 20
283.32843582367769
 30
0.0
 11
141.6233536238361
 21
283.20328372442168
 31
0.0
  0
LINE
  5
A7A
  8
DATA
  6
CONTINUOUS
 62
     7
 10
141.8593957481682
 20
285.1897506373723
 30
0.0
 11
143.352517704143
 21
285.83768581519888
 31
0.0
  0
LINE
  5
A7B
  8
DATA
  6
CONTINUOUS
 62
     7
 10
140.6533186980962
 20
285.08423256815217
 30
0.0
 11
141.8593957481682
 21
285.1897506373723
 31
0.0
  0
LINE
  5
A7C
  8
DATA
  6
CONTINUOUS
 62
     7
 10
142.23256818402169
 20
283.31102432130029
 30
0.0
 11
141.6233536238361
 21
283.20328372442168
 31
0.0
  0
LINE
  5
A7D
  8
DATA
  6
CONTINUOUS
 62
     7
 10
143.352517704143
 20
285.83768581519888
 30
0.0
 11
144.1923307892225
 21
286.30626476457383
 31
0.0
  0
LINE
  5
A7E
  8
DATA
  6
CONTINUOUS
 62
     7
 10
140.93000000000001
 20
285.10843904547829
 30
0.0
 11
140.5257780887039
 21
285.51266095677448
 31
0.0
  0
LINE
  5
A7F
  8
DATA
  6
CONTINUOUS
 62
     7
 10
144.1923307892225
 20
286.30626476457383
 30
0.0
 11
143.9179896188127
 21
286.78143761033152
 31
0.0
  0
LINE
  5
A80
  8
DATA
  6
CONTINUOUS
 62
     7
 10
144.1923307892225
 20
286.30626476457383
 30
0.0
 11
144.7475042009026
 21
286.86143817625401
 31
0.0
  0
LINE
  5
A81
  8
DATA
  6
CONTINUOUS
 62
     7
 10
145.76294848724231
 20
285.84599388991438
 30
0.0
 11
144.7475042009026
 21
286.86143817625401
 31
0.0
  0
LINE
  5
A82
  8
DATA
  6
CONTINUOUS
 62
     7
 10
142.22
 20
282.62192548973439
 30
0.0
 11
141.92796090392889
 21
283.25715402286102
 31
0.0
  0
ARC
  5
A83
  8
DATA
  6
CONTINUOUS
 62
     7
 10
163.92349448469761
 20
244.29867252475381
 30
0.0
 40
1.959745232032162
 50
214.09869111779841
 51
288.55112902488162
  0
LINE
  5
A84
  8
DATA
  6
CONTINUOUS
 62
     7
 10
162.3006820932537
 20
243.19999999999999
 30
0.0
 11
161.13524303159281
 21
245.37906293702119
 31
0.0
  0
LINE
  5
A85
  8
DATA
  6
CONTINUOUS
 62
     7
 10
170.88484197328981
 20
246.02843716264249
 30
0.0
 11
173.34999999999999
 21
248.19999999999999
 31
0.0
  0
ARC
  5
A86
  8
DATA
  6
CONTINUOUS
 62
     7
 10
168.61247660437931
 20
251.65474255263319
 30
0.0
 40
5.8633927063627373
 50
323.89935988568487
 51
85.49248664895255
  0
LINE
  5
A87
  8
DATA
  6
CONTINUOUS
 62
     7
 10
157.76652412666161
 20
270.56545790086273
 30
0.0
 11
157.96427957365111
 21
270.90798038252211
 31
0.0
  0
LINE
  5
A88
  8
DATA
  6
CONTINUOUS
 62
     7
 10
131.19516392370051
 20
325.25289319305188
 30
0.0
 11
131.44
 21
324.64693534799989
 31
0.0
  0
LINE
  5
A89
  8
DATA
  6
CONTINUOUS
 62
     7
 10
133.91951098316289
 20
337.66271280025728
 30
0.0
 11
133.31355313811011
 21
339.23000000000002
 31
0.0
  0
LINE
  5
A8A
  8
DATA
  6
CONTINUOUS
 62
     7
 10
126.65540657235481
 20
352.7968794669236
 30
0.0
 11
125.74646980477721
 21
354.00633191375522
 31
0.0
  0
LINE
  5
A8B
  8
DATA
  6
CONTINUOUS
 62
     7
 10
126.3524276498292
 20
352.19092162187133
 30
0.0
 11
126.3524276498292
 21
352.81
 31
0.0
  0
LINE
  5
A8C
  8
DATA
  6
CONTINUOUS
 62
     7
 10
123.02335436695159
 20
368.8399829011683
 30
0.0
 11
122.41739652189951
 21
373.68271917503972
 31
0.0
  0
LINE
  5
A8D
  8
DATA
  6
CONTINUOUS
 62
     7
 10
127.8660906408228
 20
370.65539319305191
 30
0.0
 11
127.1728354945466
 21
375.346
 31
0.0
  0
ENDSEC
  0
EOF
